ISO-10303-21;
HEADER;
FILE_DESCRIPTION (( 'STEP AP203' ),
    '1' );
FILE_NAME ('987586.step',
    '2021-11-08T14:12:38',
    ( '' ),
    ( '' ),
    'SwSTEP 2.0',
    'SolidWorks 2019',
    '' );
FILE_SCHEMA (( 'CONFIG_CONTROL_DESIGN' ));
ENDSEC;

DATA;
#1 = VERTEX_POINT ( 'NONE', #192 ) ;
#2 = CALENDAR_DATE ( 2021, 8, 11 ) ;
#3 = ADVANCED_FACE ( 'NONE', ( #274, #86 ), #188, .T. ) ;
#4 = DIRECTION ( 'NONE',  ( 3.491481338843133355E-15, -1.198223107250220118E-16, 1.000000000000000000 ) ) ;
#5 = DATE_AND_TIME ( #2, #300 ) ;
#6 = CIRCLE ( 'NONE', #60, 1.633974596215565400 ) ;
#7 = CC_DESIGN_PERSON_AND_ORGANIZATION_ASSIGNMENT ( #32, #57, ( #201 ) ) ;
#8 = FACE_OUTER_BOUND ( 'NONE', #9, .T. ) ;
#9 = EDGE_LOOP ( 'NONE', ( #151 ) ) ;
#10 = ORIENTED_EDGE ( 'NONE', *, *, #28, .F. ) ;
#11 = EDGE_LOOP ( 'NONE', ( #10 ) ) ;
#12 = EDGE_LOOP ( 'NONE', ( #83 ) ) ;
#13 = ORIENTED_EDGE ( 'NONE', *, *, #127, .F. ) ;
#14 = AXIS2_PLACEMENT_3D ( 'NONE', #225, #245, #291 ) ;
#15 = PERSON ( 'UNSPECIFIED', 'UNSPECIFIED', 'UNSPECIFIED', ('UNSPECIFIED'), ('UNSPECIFIED'), ('UNSPECIFIED') ) ;
#16 = DIRECTION ( 'NONE',  ( 3.491481338843133355E-15, -1.198223107250220118E-16, 1.000000000000000000 ) ) ;
#17 = FACE_OUTER_BOUND ( 'NONE', #294, .T. ) ;
#18 = LOCAL_TIME ( 15, 12, 38.00000000000000000, #217 ) ;
#19 = CARTESIAN_POINT ( 'NONE',  ( 1.222018468595096801E-13, 1.599999999999995648, 35.00000000000000000 ) ) ;
#20 = MANIFOLD_SOLID_BREP ( 'Corps-Déplacer/Copier1[2]', #125 ) ;
#21 = DIRECTION ( 'NONE',  ( 3.491481338843133355E-15, -1.198223107250220118E-16, 1.000000000000000000 ) ) ;
#22 = COORDINATED_UNIVERSAL_TIME_OFFSET ( 1, 0, .AHEAD. ) ;
#23 = VERTEX_POINT ( 'NONE', #36 ) ;
#24 = MANIFOLD_SOLID_BREP ( 'Corps-Déplacer/Copier1[1]', #160 ) ;
#25 = CARTESIAN_POINT ( 'NONE',  ( 2.269462870248036996E-14, -1.500000000000001554, 6.500000000000000888 ) ) ;
#26 = VERTEX_POINT ( 'NONE', #78 ) ;
#27 = CIRCLE ( 'NONE', #116, 0.8500000000000005329 ) ;
#28 = EDGE_CURVE ( 'NONE', #237, #237, #210, .T. ) ;
#29 = COORDINATED_UNIVERSAL_TIME_OFFSET ( 1, 0, .AHEAD. ) ;
#30 = DIRECTION ( 'NONE',  ( -4.183573618734778879E-31, -1.000000000000000000, -1.198223107250220364E-16 ) ) ;
#31 = DIRECTION ( 'NONE',  ( 3.491481338843133355E-15, -1.224646799147353454E-16, 1.000000000000000000 ) ) ;
#32 = PERSON_AND_ORGANIZATION ( #15, #203 ) ;
#33 = DIRECTION ( 'NONE',  ( -4.275831445896959482E-31, -1.000000000000000000, -1.224646799147353454E-16 ) ) ;
#34 = PERSON_AND_ORGANIZATION ( #15, #203 ) ;
#35 = FACE_BOUND ( 'NONE', #154, .T. ) ;
#36 = CARTESIAN_POINT ( 'NONE',  ( 2.444036937190195558E-14, -1.633974596215566288, 7.000000000000006217 ) ) ;
#37 = CIRCLE ( 'NONE', #213, 1.500000000000000666 ) ;
#38 = CARTESIAN_POINT ( 'NONE',  ( 0.0000000000000000000, 0.0000000000000000000, 0.0000000000000000000 ) ) ;
#39 = AXIS2_PLACEMENT_3D ( 'NONE', #259, #138, #33 ) ;
#40 = DIRECTION ( 'NONE',  ( 4.275831445896959482E-31, 1.000000000000000000, 1.224646799147353454E-16 ) ) ;
#41 = PRODUCT ( '987586', '987586', '', ( #96 ) ) ;
#42 = ORIENTED_EDGE ( 'NONE', *, *, #185, .F. ) ;
#43 = ADVANCED_FACE ( 'NONE', ( #155, #254 ), #179, .T. ) ;
#44 = CC_DESIGN_DATE_AND_TIME_ASSIGNMENT ( #164, #240, ( #181 ) ) ;
#45 = FACE_OUTER_BOUND ( 'NONE', #215, .T. ) ;
#46 = CIRCLE ( 'NONE', #14, 2.000000000000000000 ) ;
#47 = CALENDAR_DATE ( 2021, 8, 11 ) ;
#48 = DIRECTION ( 'NONE',  ( -3.491481338843133355E-15, 1.224646799147353454E-16, -1.000000000000000000 ) ) ;
#49 = DIRECTION ( 'NONE',  ( 3.491481338843133355E-15, -1.198223107250220118E-16, 1.000000000000000000 ) ) ;
#50 = FACE_OUTER_BOUND ( 'NONE', #272, .T. ) ;
#51 = PERSON_AND_ORGANIZATION ( #15, #203 ) ;
#52 = APPROVAL_DATE_TIME ( #258, #117 ) ;
#53 = EDGE_CURVE ( 'NONE', #120, #120, #121, .T. ) ;
#54 = APPROVAL_STATUS ( 'not_yet_approved' ) ;
#55 = DIRECTION ( 'NONE',  ( 1.000000000000000000, 0.0000000000000000000, 0.0000000000000000000 ) ) ;
#56 = AXIS2_PLACEMENT_3D ( 'NONE', #97, #260, #159 ) ;
#57 = PERSON_AND_ORGANIZATION_ROLE ( 'classification_officer' ) ;
#58 = DIRECTION ( 'NONE',  ( 0.0000000000000000000, -1.000000000000000000, 0.0000000000000000000 ) ) ;
#59 = SHAPE_DEFINITION_REPRESENTATION ( #205, #182 ) ;
#60 = AXIS2_PLACEMENT_3D ( 'NONE', #226, #284, #257 ) ;
#61 = ORIENTED_EDGE ( 'NONE', *, *, #270, .F. ) ;
#62 = ADVANCED_FACE ( 'NONE', ( #45 ), #251, .F. ) ;
#63 = DIRECTION ( 'NONE',  ( -3.491481338843133355E-15, 1.224646799147353454E-16, -1.000000000000000000 ) ) ;
#64 =( GEOMETRIC_REPRESENTATION_CONTEXT ( 3 ) GLOBAL_UNCERTAINTY_ASSIGNED_CONTEXT ( ( #142 ) ) GLOBAL_UNIT_ASSIGNED_CONTEXT ( ( #191, #141, #165 ) ) REPRESENTATION_CONTEXT ( 'NONE', 'WORKASPACE' ) );
#65 = EDGE_LOOP ( 'NONE', ( #108 ) ) ;
#66 = CC_DESIGN_PERSON_AND_ORGANIZATION_ASSIGNMENT ( #74, #286, ( #183 ) ) ;
#67 = EDGE_LOOP ( 'NONE', ( #79 ) ) ;
#68 = LOCAL_TIME ( 15, 12, 38.00000000000000000, #22 ) ;
#69 = AXIS2_PLACEMENT_3D ( 'NONE', #152, #84, #271 ) ;
#70 = CIRCLE ( 'NONE', #126, 0.8499999999999999778 ) ;
#71 = PERSON_AND_ORGANIZATION ( #15, #203 ) ;
#72 = DIRECTION ( 'NONE',  ( 0.0000000000000000000, -1.000000000000000000, 0.0000000000000000000 ) ) ;
#73 = CC_DESIGN_PERSON_AND_ORGANIZATION_ASSIGNMENT ( #95, #194, ( #183 ) ) ;
#74 = PERSON_AND_ORGANIZATION ( #15, #203 ) ;
#75 = PLANE ( 'NONE',  #157 ) ;
#76 = AXIS2_PLACEMENT_3D ( 'NONE', #105, #253, #40 ) ;
#77 = DIRECTION ( 'NONE',  ( 0.0000000000000000000, -1.000000000000000000, 0.0000000000000000000 ) ) ;
#78 = CARTESIAN_POINT ( 'NONE',  ( 1.355631674873811596E-14, -0.9261204674887142385, 3.882683432365089615 ) ) ;
#79 = ORIENTED_EDGE ( 'NONE', *, *, #255, .T. ) ;
#80 = AXIS2_PLACEMENT_3D ( 'NONE', #99, #171, #30 ) ;
#81 = ADVANCED_FACE ( 'NONE', ( #130, #204 ), #299, .T. ) ;
#82 = DIRECTION ( 'NONE',  ( 0.0000000000000000000, 1.000000000000000000, 0.0000000000000000000 ) ) ;
#83 = ORIENTED_EDGE ( 'NONE', *, *, #221, .F. ) ;
#84 = DIRECTION ( 'NONE',  ( -3.491481338843133355E-15, 1.224646799147353454E-16, -1.000000000000000000 ) ) ;
#85 = DIRECTION ( 'NONE',  ( 3.491481338843133355E-15, -1.198223107250220118E-16, 1.000000000000000000 ) ) ;
#86 = FACE_OUTER_BOUND ( 'NONE', #176, .T. ) ;
#87 = AXIS2_PLACEMENT_3D ( 'NONE', #38, #48, #280 ) ;
#88 = DIRECTION ( 'NONE',  ( 3.491481338843133355E-15, -1.198223107250220118E-16, 1.000000000000000000 ) ) ;
#89 = DIRECTION ( 'NONE',  ( -4.275831445896959482E-31, -1.000000000000000000, -1.224646799147353454E-16 ) ) ;
#90 = ADVANCED_FACE ( 'NONE', ( #50 ), #115, .T. ) ;
#91 = FACE_OUTER_BOUND ( 'NONE', #273, .T. ) ;
#92 = EDGE_CURVE ( 'NONE', #281, #281, #243, .T. ) ;
#93 = ADVANCED_FACE ( 'NONE', ( #184 ), #235, .F. ) ;
#94 = CALENDAR_DATE ( 2021, 8, 11 ) ;
#95 = PERSON_AND_ORGANIZATION ( #15, #203 ) ;
#96 = MECHANICAL_CONTEXT ( 'NONE', #218, 'mechanical' ) ;
#97 = CARTESIAN_POINT ( 'NONE',  ( 1.355631674873811596E-14, -4.652321006797447626E-16, 3.882683432365089615 ) ) ;
#98 = DATE_AND_TIME ( #47, #18 ) ;
#99 = CARTESIAN_POINT ( 'NONE',  ( 0.0000000000000000000, 0.0000000000000000000, 0.0000000000000000000 ) ) ;
#100 = APPROVAL_DATE_TIME ( #5, #110 ) ;
#101 = DIRECTION ( 'NONE',  ( -4.276750090325161664E-31, -1.000000000000000000, -1.198223107250220118E-16 ) ) ;
#102 = ADVANCED_FACE ( 'NONE', ( #35, #266 ), #173, .T. ) ;
#103 = CC_DESIGN_PERSON_AND_ORGANIZATION_ASSIGNMENT ( #34, #193, ( #41 ) ) ;
#104 = DIRECTION ( 'NONE',  ( 3.491481338843133355E-15, -1.198223107250220118E-16, 1.000000000000000000 ) ) ;
#105 = CARTESIAN_POINT ( 'NONE',  ( 1.222018468595096801E-13, 1.199807826129480202E-32, 35.00000000000000000 ) ) ;
#106 = LOCAL_TIME ( 15, 12, 38.00000000000000000, #239 ) ;
#107 = EDGE_LOOP ( 'NONE', ( #234 ) ) ;
#108 = ORIENTED_EDGE ( 'NONE', *, *, #255, .F. ) ;
#109 = CARTESIAN_POINT ( 'NONE',  ( 1.222018468595096801E-13, -4.286263797015737285E-15, 35.00000000000000000 ) ) ;
#110 = APPROVAL ( #54, 'UNSPECIFIED' ) ;
#111 = ORIENTED_EDGE ( 'NONE', *, *, #278, .F. ) ;
#112 = AXIS2_PLACEMENT_3D ( 'NONE', #136, #223, #89 ) ;
#113 = CYLINDRICAL_SURFACE ( 'NONE', #297, 0.8500000000000003109 ) ;
#114 = ADVANCED_FACE ( 'NONE', ( #8, #140 ), #133, .F. ) ;
#115 = PLANE ( 'NONE',  #112 ) ;
#116 = AXIS2_PLACEMENT_3D ( 'NONE', #158, #49, #163 ) ;
#117 = APPROVAL ( #302, 'UNSPECIFIED' ) ;
#118 = DIRECTION ( 'NONE',  ( -4.183573618734778004E-31, -1.000000000000000000, -1.198223107250220118E-16 ) ) ;
#119 = CARTESIAN_POINT ( 'NONE',  ( 1.222018468595096201E-14, -0.8500000000000009770, 3.499999999999998668 ) ) ;
#120 = VERTEX_POINT ( 'NONE', #19 ) ;
#121 = CIRCLE ( 'NONE', #69, 1.600000000000000089 ) ;
#122 = DESIGN_CONTEXT ( 'detailed design', #190, 'design' ) ;
#123 = COORDINATED_UNIVERSAL_TIME_OFFSET ( 1, 0, .AHEAD. ) ;
#124 = DATE_AND_TIME ( #143, #129 ) ;
#125 = CLOSED_SHELL ( 'NONE', ( #90, #195, #93 ) ) ;
#126 = AXIS2_PLACEMENT_3D ( 'NONE', #277, #177, #208 ) ;
#127 = EDGE_CURVE ( 'NONE', #1, #1, #46, .T. ) ;
#128 = ORIENTED_EDGE ( 'NONE', *, *, #185, .T. ) ;
#129 = LOCAL_TIME ( 15, 12, 38.00000000000000000, #123 ) ;
#130 = FACE_OUTER_BOUND ( 'NONE', #293, .T. ) ;
#131 = ORIENTED_EDGE ( 'NONE', *, *, #146, .F. ) ;
#132 = ORIENTED_EDGE ( 'NONE', *, *, #92, .F. ) ;
#133 = TOROIDAL_SURFACE ( 'NONE', #282, 1.850000000000000533, 1.000000000000000000 ) ;
#134 = ADVANCED_FACE ( 'NONE', ( #249, #269 ), #290, .T. ) ;
#135 = CIRCLE ( 'NONE', #169, 0.8500000000000005329 ) ;
#136 = CARTESIAN_POINT ( 'NONE',  ( 1.222018468595096517E-14, 1.499759782661854871E-32, 3.499999999999999556 ) ) ;
#137 = PERSON_AND_ORGANIZATION_ROLE ( 'creator' ) ;
#138 = DIRECTION ( 'NONE',  ( 3.491481338843133355E-15, -1.224646799147353454E-16, 1.000000000000000000 ) ) ;
#139 = DIRECTION ( 'NONE',  ( -4.275831445896959482E-31, -1.000000000000000000, -1.224646799147353454E-16 ) ) ;
#140 = FACE_OUTER_BOUND ( 'NONE', #12, .T. ) ;
#141 =( NAMED_UNIT ( * ) PLANE_ANGLE_UNIT ( ) SI_UNIT ( $, .RADIAN. ) );
#142 = UNCERTAINTY_MEASURE_WITH_UNIT (LENGTH_MEASURE( 1.000000000000000082E-05 ), #191, 'distance_accuracy_value', 'NONE');
#143 = CALENDAR_DATE ( 2021, 8, 11 ) ;
#144 = CARTESIAN_POINT ( 'NONE',  ( 1.839365154537711883E-14, -1.500000000000001332, 5.268151182922164999 ) ) ;
#145 = EDGE_LOOP ( 'NONE', ( #131 ) ) ;
#146 = EDGE_CURVE ( 'NONE', #268, #268, #37, .T. ) ;
#147 = APPROVAL ( #228, 'UNSPECIFIED' ) ;
#148 = TOROIDAL_SURFACE ( 'NONE', #229, 2.500000000000000444, 0.9999999999999997780 ) ;
#149 = VERTEX_POINT ( 'NONE', #241 ) ;
#150 = EDGE_LOOP ( 'NONE', ( #170 ) ) ;
#151 = ORIENTED_EDGE ( 'NONE', *, *, #270, .T. ) ;
#152 = CARTESIAN_POINT ( 'NONE',  ( 1.222018468595096801E-13, -4.286263797015737285E-15, 35.00000000000000000 ) ) ;
#153 = CC_DESIGN_APPROVAL ( #147, ( #183 ) ) ;
#154 = EDGE_LOOP ( 'NONE', ( #230 ) ) ;
#155 = FACE_OUTER_BOUND ( 'NONE', #212, .T. ) ;
#156 = CC_DESIGN_DATE_AND_TIME_ASSIGNMENT ( #124, #166, ( #201 ) ) ;
#157 = AXIS2_PLACEMENT_3D ( 'NONE', #264, #31, #139 ) ;
#158 = CARTESIAN_POINT ( 'NONE',  ( 1.222018468595096201E-14, -4.193780875375769179E-16, 3.499999999999998668 ) ) ;
#159 = DIRECTION ( 'NONE',  ( 0.0000000000000000000, -1.000000000000000000, 0.0000000000000000000 ) ) ;
#160 = CLOSED_SHELL ( 'NONE', ( #81, #43, #62, #3, #206, #134, #102, #114, #250 ) ) ;
#161 = APPROVAL_ROLE ( '' ) ;
#162 = CC_DESIGN_APPROVAL ( #117, ( #181 ) ) ;
#163 = DIRECTION ( 'NONE',  ( 0.0000000000000000000, -1.000000000000000000, 0.0000000000000000000 ) ) ;
#164 = DATE_AND_TIME ( #94, #106 ) ;
#165 =( NAMED_UNIT ( * ) SI_UNIT ( $, .STERADIAN. ) SOLID_ANGLE_UNIT ( ) );
#166 = DATE_TIME_ROLE ( 'classification_date' ) ;
#167 = CARTESIAN_POINT ( 'NONE',  ( 0.0000000000000000000, 0.0000000000000000000, 0.0000000000000000000 ) ) ;
#168 = VERTEX_POINT ( 'NONE', #267 ) ;
#169 = AXIS2_PLACEMENT_3D ( 'NONE', #288, #4, #199 ) ;
#170 = ORIENTED_EDGE ( 'NONE', *, *, #92, .T. ) ;
#171 = DIRECTION ( 'NONE',  ( 3.491481338843133355E-15, -1.198223107250220118E-16, 1.000000000000000000 ) ) ;
#172 = CARTESIAN_POINT ( 'NONE',  ( 1.222018468595096043E-14, -4.336808689942017736E-16, 3.499999999999998224 ) ) ;
#173 = CONICAL_SURFACE ( 'NONE', #248, 1.500000000000000666, 0.3926990816987254718 ) ;
#174 = EDGE_LOOP ( 'NONE', ( #61 ) ) ;
#175 = EDGE_LOOP ( 'NONE', ( #128 ) ) ;
#176 = EDGE_LOOP ( 'NONE', ( #132 ) ) ;
#177 = DIRECTION ( 'NONE',  ( 3.491481338843133355E-15, -1.198223107250220118E-16, 1.000000000000000000 ) ) ;
#178 = DIRECTION ( 'NONE',  ( 0.0000000000000000000, -1.000000000000000000, 0.0000000000000000000 ) ) ;
#179 = CONICAL_SURFACE ( 'NONE', #222, 1.600000000000000089, 0.7853981633974512766 ) ;
#180 = ORIENTED_EDGE ( 'NONE', *, *, #278, .T. ) ;
#181 = PRODUCT_DEFINITION ( 'UNKNOWN', '', #183, #122 ) ;
#182 = ADVANCED_BREP_SHAPE_REPRESENTATION ( '987586', ( #24, #20, #279 ), #64 ) ;
#183 = PRODUCT_DEFINITION_FORMATION_WITH_SPECIFIED_SOURCE ( 'ANY', '', #41, .NOT_KNOWN. ) ;
#184 = FACE_OUTER_BOUND ( 'NONE', #247, .T. ) ;
#185 = EDGE_CURVE ( 'NONE', #149, #149, #70, .T. ) ;
#186 = FACE_OUTER_BOUND ( 'NONE', #65, .T. ) ;
#187 = CALENDAR_DATE ( 2021, 8, 11 ) ;
#188 = CONICAL_SURFACE ( 'NONE', #189, 1.999999999999998668, 0.5235987755983074754 ) ;
#189 = AXIS2_PLACEMENT_3D ( 'NONE', #232, #88, #178 ) ;
#190 = APPLICATION_CONTEXT ( 'configuration controlled 3d designs of mechanical parts and assemblies' ) ;
#191 =( LENGTH_UNIT ( ) NAMED_UNIT ( * ) SI_UNIT ( .MILLI., .METRE. ) );
#192 = CARTESIAN_POINT ( 'NONE',  ( 1.208052543239724267E-13, 1.999999999999995781, 34.60000000000000853 ) ) ;
#193 = PERSON_AND_ORGANIZATION_ROLE ( 'design_owner' ) ;
#194 = PERSON_AND_ORGANIZATION_ROLE ( 'creator' ) ;
#195 = ADVANCED_FACE ( 'NONE', ( #275, #17 ), #113, .T. ) ;
#196 = CARTESIAN_POINT ( 'NONE',  ( 2.269462870248036681E-14, -8.673617379884035472E-16, 6.500000000000000000 ) ) ;
#197 = APPROVAL_DATE_TIME ( #98, #147 ) ;
#198 = DIRECTION ( 'NONE',  ( 3.491481338843133355E-15, -1.198223107250220118E-16, 1.000000000000000000 ) ) ;
#199 = DIRECTION ( 'NONE',  ( 0.0000000000000000000, -1.000000000000000000, 0.0000000000000000000 ) ) ;
#200 = CARTESIAN_POINT ( 'NONE',  ( 1.839365154537711883E-14, -6.312420479864919049E-16, 5.268151182922164999 ) ) ;
#201 = SECURITY_CLASSIFICATION ( '', '', #224 ) ;
#202 = DIRECTION ( 'NONE',  ( 3.491481338843133355E-15, -1.198223107250220118E-16, 1.000000000000000000 ) ) ;
#203 = ORGANIZATION ( 'UNSPECIFIED', 'UNSPECIFIED', '' ) ;
#204 = FACE_OUTER_BOUND ( 'NONE', #150, .T. ) ;
#205 = PRODUCT_DEFINITION_SHAPE ( 'NONE', 'NONE',  #181 ) ;
#206 = ADVANCED_FACE ( 'NONE', ( #91, #186 ), #148, .F. ) ;
#207 = CARTESIAN_POINT ( 'NONE',  ( 2.269462870248036996E-14, -7.788450197126431505E-16, 6.500000000000000888 ) ) ;
#208 = DIRECTION ( 'NONE',  ( -4.183573618734778004E-31, -1.000000000000000000, -1.198223107250220118E-16 ) ) ;
#209 = ORIENTED_EDGE ( 'NONE', *, *, #53, .T. ) ;
#210 = CIRCLE ( 'NONE', #227, 1.500000000000000666 ) ;
#211 = AXIS2_PLACEMENT_3D ( 'NONE', #238, #285, #72 ) ;
#212 = EDGE_LOOP ( 'NONE', ( #13 ) ) ;
#213 = AXIS2_PLACEMENT_3D ( 'NONE', #200, #198, #77 ) ;
#214 = CC_DESIGN_PERSON_AND_ORGANIZATION_ASSIGNMENT ( #51, #137, ( #181 ) ) ;
#215 = EDGE_LOOP ( 'NONE', ( #231 ) ) ;
#216 = CC_DESIGN_APPROVAL ( #110, ( #201 ) ) ;
#217 = COORDINATED_UNIVERSAL_TIME_OFFSET ( 1, 0, .AHEAD. ) ;
#218 = APPLICATION_CONTEXT ( 'configuration controlled 3d designs of mechanical parts and assemblies' ) ;
#219 = FACE_OUTER_BOUND ( 'NONE', #174, .T. ) ;
#220 = CARTESIAN_POINT ( 'NONE',  ( 2.665387984388912288E-14, -1.999999999999999556, 7.633974596215545638 ) ) ;
#221 = EDGE_CURVE ( 'NONE', #26, #26, #292, .T. ) ;
#222 = AXIS2_PLACEMENT_3D ( 'NONE', #109, #63, #82 ) ;
#223 = DIRECTION ( 'NONE',  ( 3.491481338843133355E-15, -1.224646799147353454E-16, 1.000000000000000000 ) ) ;
#224 = SECURITY_CLASSIFICATION_LEVEL ( 'unclassified' ) ;
#225 = CARTESIAN_POINT ( 'NONE',  ( 1.208052543239724267E-13, -4.237277925049843857E-15, 34.60000000000000853 ) ) ;
#226 = CARTESIAN_POINT ( 'NONE',  ( 2.444036937190195558E-14, -8.387561750751548220E-16, 7.000000000000006217 ) ) ;
#227 = AXIS2_PLACEMENT_3D ( 'NONE', #207, #16, #276 ) ;
#228 = APPROVAL_STATUS ( 'not_yet_approved' ) ;
#229 = AXIS2_PLACEMENT_3D ( 'NONE', #196, #21, #118 ) ;
#230 = ORIENTED_EDGE ( 'NONE', *, *, #221, .T. ) ;
#231 = ORIENTED_EDGE ( 'NONE', *, *, #53, .F. ) ;
#232 = CARTESIAN_POINT ( 'NONE',  ( 2.665387984388912288E-14, -9.147204761346635210E-16, 7.633974596215545638 ) ) ;
#233 = ORIENTED_EDGE ( 'NONE', *, *, #28, .T. ) ;
#234 = ORIENTED_EDGE ( 'NONE', *, *, #146, .T. ) ;
#235 = PLANE ( 'NONE',  #39 ) ;
#236 = CC_DESIGN_SECURITY_CLASSIFICATION ( #201, ( #183 ) ) ;
#237 = VERTEX_POINT ( 'NONE', #25 ) ;
#238 = CARTESIAN_POINT ( 'NONE',  ( 2.665387984388912288E-14, -9.147204761346635210E-16, 7.633974596215545638 ) ) ;
#239 = COORDINATED_UNIVERSAL_TIME_OFFSET ( 1, 0, .AHEAD. ) ;
#240 = DATE_TIME_ROLE ( 'creation_date' ) ;
#241 = CARTESIAN_POINT ( 'NONE',  ( -7.112075151849122081E-31, -0.8499999999999999778, -2.036979282325374102E-16 ) ) ;
#242 = DIRECTION ( 'NONE',  ( -4.183573618734778004E-31, -1.000000000000000000, -1.198223107250220118E-16 ) ) ;
#243 = CIRCLE ( 'NONE', #211, 1.999999999999998668 ) ;
#244 = APPROVAL_ROLE ( '' ) ;
#245 = DIRECTION ( 'NONE',  ( -3.491481338843133355E-15, 1.224646799147353454E-16, -1.000000000000000000 ) ) ;
#246 = APPLICATION_PROTOCOL_DEFINITION ( 'international standard', 'config_control_design', 1994, #218 ) ;
#247 = EDGE_LOOP ( 'NONE', ( #42 ) ) ;
#248 = AXIS2_PLACEMENT_3D ( 'NONE', #262, #202, #58 ) ;
#249 = FACE_OUTER_BOUND ( 'NONE', #107, .T. ) ;
#250 = ADVANCED_FACE ( 'NONE', ( #219 ), #75, .F. ) ;
#251 = PLANE ( 'NONE',  #76 ) ;
#252 = APPROVAL_PERSON_ORGANIZATION ( #261, #110, #244 ) ;
#253 = DIRECTION ( 'NONE',  ( -3.491481338843133355E-15, 1.224646799147353454E-16, -1.000000000000000000 ) ) ;
#254 = FACE_BOUND ( 'NONE', #298, .T. ) ;
#255 = EDGE_CURVE ( 'NONE', #23, #23, #6, .T. ) ;
#256 = APPROVAL_ROLE ( '' ) ;
#257 = DIRECTION ( 'NONE',  ( 0.0000000000000000000, -1.000000000000000000, 0.0000000000000000000 ) ) ;
#258 = DATE_AND_TIME ( #187, #68 ) ;
#259 = CARTESIAN_POINT ( 'NONE',  ( -3.206893176761000815E-31, 1.124826709063586741E-32, -9.184907108292241390E-17 ) ) ;
#260 = DIRECTION ( 'NONE',  ( 3.491481338843133355E-15, -1.198223107250220118E-16, 1.000000000000000000 ) ) ;
#261 = PERSON_AND_ORGANIZATION ( #15, #203 ) ;
#262 = CARTESIAN_POINT ( 'NONE',  ( 1.839365154537711883E-14, -6.312420479864919049E-16, 5.268151182922164999 ) ) ;
#263 = DIRECTION ( 'NONE',  ( 0.0000000000000000000, 0.0000000000000000000, 1.000000000000000000 ) ) ;
#264 = CARTESIAN_POINT ( 'NONE',  ( 1.222018468595096517E-14, 1.499759782661854871E-32, 3.499999999999999556 ) ) ;
#265 = APPROVAL_PERSON_ORGANIZATION ( #287, #147, #256 ) ;
#266 = FACE_OUTER_BOUND ( 'NONE', #145, .T. ) ;
#267 = CARTESIAN_POINT ( 'NONE',  ( 1.222018468595096201E-14, -0.8500000000000009770, 3.499999999999998668 ) ) ;
#268 = VERTEX_POINT ( 'NONE', #144 ) ;
#269 = FACE_OUTER_BOUND ( 'NONE', #11, .T. ) ;
#270 = EDGE_CURVE ( 'NONE', #168, #168, #135, .T. ) ;
#271 = DIRECTION ( 'NONE',  ( 0.0000000000000000000, 1.000000000000000000, 0.0000000000000000000 ) ) ;
#272 = EDGE_LOOP ( 'NONE', ( #180 ) ) ;
#273 = EDGE_LOOP ( 'NONE', ( #233 ) ) ;
#274 = FACE_BOUND ( 'NONE', #67, .T. ) ;
#275 = FACE_OUTER_BOUND ( 'NONE', #175, .T. ) ;
#276 = DIRECTION ( 'NONE',  ( 0.0000000000000000000, -1.000000000000000000, 0.0000000000000000000 ) ) ;
#277 = CARTESIAN_POINT ( 'NONE',  ( -3.556037575924560602E-31, 1.220377822536116405E-32, -1.018489641162687051E-16 ) ) ;
#278 = EDGE_CURVE ( 'NONE', #303, #303, #27, .T. ) ;
#279 = AXIS2_PLACEMENT_3D ( 'NONE', #167, #263, #55 ) ;
#280 = DIRECTION ( 'NONE',  ( 4.275831445896958607E-31, 1.000000000000000000, 1.224646799147353454E-16 ) ) ;
#281 = VERTEX_POINT ( 'NONE', #220 ) ;
#282 = AXIS2_PLACEMENT_3D ( 'NONE', #172, #104, #101 ) ;
#283 = PRODUCT_RELATED_PRODUCT_CATEGORY ( 'detail', '', ( #41 ) ) ;
#284 = DIRECTION ( 'NONE',  ( 3.491481338843133355E-15, -1.198223107250220118E-16, 1.000000000000000000 ) ) ;
#285 = DIRECTION ( 'NONE',  ( 3.491481338843133355E-15, -1.198223107250220118E-16, 1.000000000000000000 ) ) ;
#286 = PERSON_AND_ORGANIZATION_ROLE ( 'design_supplier' ) ;
#287 = PERSON_AND_ORGANIZATION ( #15, #203 ) ;
#288 = CARTESIAN_POINT ( 'NONE',  ( 1.222018468595096201E-14, -4.193780875375769179E-16, 3.499999999999998668 ) ) ;
#289 = APPROVAL_PERSON_ORGANIZATION ( #71, #117, #161 ) ;
#290 = CYLINDRICAL_SURFACE ( 'NONE', #80, 1.500000000000000666 ) ;
#291 = DIRECTION ( 'NONE',  ( 0.0000000000000000000, 1.000000000000000000, 0.0000000000000000000 ) ) ;
#292 = CIRCLE ( 'NONE', #56, 0.9261204674887137944 ) ;
#293 = EDGE_LOOP ( 'NONE', ( #296 ) ) ;
#294 = EDGE_LOOP ( 'NONE', ( #111 ) ) ;
#295 = CARTESIAN_POINT ( 'NONE',  ( 0.0000000000000000000, 0.0000000000000000000, 0.0000000000000000000 ) ) ;
#296 = ORIENTED_EDGE ( 'NONE', *, *, #127, .T. ) ;
#297 = AXIS2_PLACEMENT_3D ( 'NONE', #295, #85, #242 ) ;
#298 = EDGE_LOOP ( 'NONE', ( #209 ) ) ;
#299 = CYLINDRICAL_SURFACE ( 'NONE', #87, 1.999999999999998224 ) ;
#300 = LOCAL_TIME ( 15, 12, 38.00000000000000000, #29 ) ;
#301 = APPLICATION_PROTOCOL_DEFINITION ( 'international standard', 'config_control_design', 1994, #190 ) ;
#302 = APPROVAL_STATUS ( 'not_yet_approved' ) ;
#303 = VERTEX_POINT ( 'NONE', #119 ) ;
ENDSEC;
END-ISO-10303-21;
