ISO-10303-21;
HEADER;
FILE_DESCRIPTION (( 'STEP AP203' ),
    '1' );
FILE_NAME ('987585.step',
    '2021-11-08T14:12:38',
    ( '' ),
    ( '' ),
    'SwSTEP 2.0',
    'SolidWorks 2019',
    '' );
FILE_SCHEMA (( 'CONFIG_CONTROL_DESIGN' ));
ENDSEC;

DATA;
#1 = DIRECTION ( 'NONE',  ( -4.275831445896959482E-31, -1.000000000000000000, -1.224646799147353454E-16 ) ) ;
#2 = CYLINDRICAL_SURFACE ( 'NONE', #250, 0.8000000000000001554 ) ;
#3 = AXIS2_PLACEMENT_3D ( 'NONE', #210, #119, #158 ) ;
#4 = CC_DESIGN_SECURITY_CLASSIFICATION ( #231, ( #85 ) ) ;
#5 = COORDINATED_UNIVERSAL_TIME_OFFSET ( 1, 0, .AHEAD. ) ;
#6 =( NAMED_UNIT ( * ) SI_UNIT ( $, .STERADIAN. ) SOLID_ANGLE_UNIT ( ) );
#7 = PERSON_AND_ORGANIZATION ( #213, #65 ) ;
#8 = AXIS2_PLACEMENT_3D ( 'NONE', #142, #23, #207 ) ;
#9 = PERSON_AND_ORGANIZATION ( #213, #65 ) ;
#10 = DATE_AND_TIME ( #84, #54 ) ;
#11 = ORIENTED_EDGE ( 'NONE', *, *, #134, .F. ) ;
#12 = TOROIDAL_SURFACE ( 'NONE', #211, 2.500000000000000444, 0.9999999999999997780 ) ;
#13 = MANIFOLD_SOLID_BREP ( 'Corps-Déplacer/Copier1[1]', #224 ) ;
#14 = DIRECTION ( 'NONE',  ( 0.0000000000000000000, -1.000000000000000000, 0.0000000000000000000 ) ) ;
#15 = CC_DESIGN_PERSON_AND_ORGANIZATION_ASSIGNMENT ( #7, #59, ( #85 ) ) ;
#16 = CARTESIAN_POINT ( 'NONE',  ( 1.222018468595096201E-14, -4.336808689942017736E-16, 3.499999999999998668 ) ) ;
#17 = FACE_OUTER_BOUND ( 'NONE', #259, .T. ) ;
#18 = CC_DESIGN_PERSON_AND_ORGANIZATION_ASSIGNMENT ( #9, #55, ( #199 ) ) ;
#19 = CIRCLE ( 'NONE', #144, 0.8000000000000003775 ) ;
#20 = DESIGN_CONTEXT ( 'detailed design', #263, 'design' ) ;
#21 = DIRECTION ( 'NONE',  ( 3.491481338843133355E-15, -1.224646799147353454E-16, 1.000000000000000000 ) ) ;
#22 = ADVANCED_FACE ( 'NONE', ( #132, #249 ), #44, .T. ) ;
#23 = DIRECTION ( 'NONE',  ( 3.491481338843133355E-15, -1.198223107250220118E-16, 1.000000000000000000 ) ) ;
#24 = AXIS2_PLACEMENT_3D ( 'NONE', #42, #43, #182 ) ;
#25 = CYLINDRICAL_SURFACE ( 'NONE', #3, 1.999999999999998224 ) ;
#26 = CARTESIAN_POINT ( 'NONE',  ( 1.881511062542750073E-14, -6.457058803678533804E-16, 5.388861861040819434 ) ) ;
#27 = EDGE_CURVE ( 'NONE', #274, #274, #157, .T. ) ;
#28 = PERSON_AND_ORGANIZATION ( #213, #65 ) ;
#29 = CIRCLE ( 'NONE', #198, 0.8000000000000003775 ) ;
#30 = APPROVAL_ROLE ( '' ) ;
#31 = APPROVAL_STATUS ( 'not_yet_approved' ) ;
#32 = PERSON_AND_ORGANIZATION_ROLE ( 'creator' ) ;
#33 = CLOSED_SHELL ( 'NONE', ( #292, #241, #129 ) ) ;
#34 = ADVANCED_FACE ( 'NONE', ( #226 ), #267, .F. ) ;
#35 = EDGE_LOOP ( 'NONE', ( #89 ) ) ;
#36 = ADVANCED_BREP_SHAPE_REPRESENTATION ( '987585', ( #13, #248, #126 ), #38 ) ;
#37 = EDGE_LOOP ( 'NONE', ( #257 ) ) ;
#38 =( GEOMETRIC_REPRESENTATION_CONTEXT ( 3 ) GLOBAL_UNCERTAINTY_ASSIGNED_CONTEXT ( ( #187 ) ) GLOBAL_UNIT_ASSIGNED_CONTEXT ( ( #258, #170, #6 ) ) REPRESENTATION_CONTEXT ( 'NONE', 'WORKASPACE' ) );
#39 = LOCAL_TIME ( 15, 12, 38.00000000000000000, #56 ) ;
#40 = DIRECTION ( 'NONE',  ( -4.183573618734778004E-31, -1.000000000000000000, -1.198223107250220118E-16 ) ) ;
#41 = ADVANCED_FACE ( 'NONE', ( #61 ), #151, .F. ) ;
#42 = CARTESIAN_POINT ( 'NONE',  ( 2.269462870248036996E-14, -7.788450197126431505E-16, 6.500000000000000888 ) ) ;
#43 = DIRECTION ( 'NONE',  ( 3.491481338843133355E-15, -1.198223107250220118E-16, 1.000000000000000000 ) ) ;
#44 = CONICAL_SURFACE ( 'NONE', #79, 1.999999999999998668, 0.5235987755983074754 ) ;
#45 = LOCAL_TIME ( 15, 12, 38.00000000000000000, #222 ) ;
#46 = EDGE_CURVE ( 'NONE', #99, #99, #70, .T. ) ;
#47 = FACE_OUTER_BOUND ( 'NONE', #171, .T. ) ;
#48 = DIRECTION ( 'NONE',  ( 3.491481338843133355E-15, -1.198223107250220118E-16, 1.000000000000000000 ) ) ;
#49 = VERTEX_POINT ( 'NONE', #141 ) ;
#50 = DIRECTION ( 'NONE',  ( 0.0000000000000000000, -1.000000000000000000, 0.0000000000000000000 ) ) ;
#51 = MECHANICAL_CONTEXT ( 'NONE', #186, 'mechanical' ) ;
#52 = ORIENTED_EDGE ( 'NONE', *, *, #77, .F. ) ;
#53 = CIRCLE ( 'NONE', #218, 2.000000000000000000 ) ;
#54 = LOCAL_TIME ( 15, 12, 38.00000000000000000, #67 ) ;
#55 = PERSON_AND_ORGANIZATION_ROLE ( 'design_owner' ) ;
#56 = COORDINATED_UNIVERSAL_TIME_OFFSET ( 1, 0, .AHEAD. ) ;
#57 = ORIENTED_EDGE ( 'NONE', *, *, #77, .T. ) ;
#58 = AXIS2_PLACEMENT_3D ( 'NONE', #220, #154, #223 ) ;
#59 = PERSON_AND_ORGANIZATION_ROLE ( 'design_supplier' ) ;
#60 = APPROVAL_DATE_TIME ( #10, #165 ) ;
#61 = FACE_OUTER_BOUND ( 'NONE', #238, .T. ) ;
#62 = CARTESIAN_POINT ( 'NONE',  ( 2.269462870248036681E-14, -8.673617379884035472E-16, 6.500000000000000000 ) ) ;
#63 = EDGE_LOOP ( 'NONE', ( #270 ) ) ;
#64 = AXIS2_PLACEMENT_3D ( 'NONE', #16, #115, #116 ) ;
#65 = ORGANIZATION ( 'UNSPECIFIED', 'UNSPECIFIED', '' ) ;
#66 = DIRECTION ( 'NONE',  ( 0.0000000000000000000, -1.000000000000000000, 0.0000000000000000000 ) ) ;
#67 = COORDINATED_UNIVERSAL_TIME_OFFSET ( 1, 0, .AHEAD. ) ;
#68 = EDGE_LOOP ( 'NONE', ( #81 ) ) ;
#69 = CARTESIAN_POINT ( 'NONE',  ( 2.269462870248036996E-14, -1.500000000000001554, 6.500000000000000888 ) ) ;
#70 = CIRCLE ( 'NONE', #268, 0.8000000000000000444 ) ;
#71 = FACE_BOUND ( 'NONE', #196, .T. ) ;
#72 = CC_DESIGN_PERSON_AND_ORGANIZATION_ASSIGNMENT ( #260, #125, ( #85 ) ) ;
#73 = PLANE ( 'NONE',  #97 ) ;
#74 = FACE_OUTER_BOUND ( 'NONE', #285, .T. ) ;
#75 = VERTEX_POINT ( 'NONE', #262 ) ;
#76 = EDGE_LOOP ( 'NONE', ( #166 ) ) ;
#77 = EDGE_CURVE ( 'NONE', #251, #251, #103, .T. ) ;
#78 = EDGE_LOOP ( 'NONE', ( #152 ) ) ;
#79 = AXIS2_PLACEMENT_3D ( 'NONE', #92, #290, #66 ) ;
#80 = CARTESIAN_POINT ( 'NONE',  ( 1.222018468595096801E-13, 1.599999999999995648, 35.00000000000000000 ) ) ;
#81 = ORIENTED_EDGE ( 'NONE', *, *, #27, .T. ) ;
#82 = APPROVAL_STATUS ( 'not_yet_approved' ) ;
#83 = CIRCLE ( 'NONE', #291, 1.600000000000000089 ) ;
#84 = CALENDAR_DATE ( 2021, 8, 11 ) ;
#85 = PRODUCT_DEFINITION_FORMATION_WITH_SPECIFIED_SOURCE ( 'ANY', '', #199, .NOT_KNOWN. ) ;
#86 = ORIENTED_EDGE ( 'NONE', *, *, #46, .T. ) ;
#87 = DIRECTION ( 'NONE',  ( -3.491481338843133355E-15, 1.224646799147353454E-16, -1.000000000000000000 ) ) ;
#88 = SHAPE_DEFINITION_REPRESENTATION ( #288, #36 ) ;
#89 = ORIENTED_EDGE ( 'NONE', *, *, #234, .F. ) ;
#90 = CC_DESIGN_DATE_AND_TIME_ASSIGNMENT ( #147, #193, ( #245 ) ) ;
#91 = CALENDAR_DATE ( 2021, 8, 11 ) ;
#92 = CARTESIAN_POINT ( 'NONE',  ( 2.665387984388912288E-14, -9.147204761346635210E-16, 7.633974596215545638 ) ) ;
#93 = AXIS2_PLACEMENT_3D ( 'NONE', #185, #189, #50 ) ;
#94 = CARTESIAN_POINT ( 'NONE',  ( -3.206893176761000815E-31, 1.124826709063586741E-32, -9.184907108292241390E-17 ) ) ;
#95 = FACE_OUTER_BOUND ( 'NONE', #168, .T. ) ;
#96 = FACE_OUTER_BOUND ( 'NONE', #130, .T. ) ;
#97 = AXIS2_PLACEMENT_3D ( 'NONE', #209, #301, #1 ) ;
#98 = CARTESIAN_POINT ( 'NONE',  ( 1.222018468595096201E-14, -4.193780875375769179E-16, 3.499999999999998668 ) ) ;
#99 = VERTEX_POINT ( 'NONE', #102 ) ;
#100 = ADVANCED_FACE ( 'NONE', ( #131, #297 ), #12, .F. ) ;
#101 = PRODUCT_RELATED_PRODUCT_CATEGORY ( 'detail', '', ( #199 ) ) ;
#102 = CARTESIAN_POINT ( 'NONE',  ( -6.693717789975644981E-31, -0.8000000000000000444, -1.917156971600352139E-16 ) ) ;
#103 = CIRCLE ( 'NONE', #174, 1.999999999999998668 ) ;
#104 = APPLICATION_PROTOCOL_DEFINITION ( 'international standard', 'config_control_design', 1994, #263 ) ;
#105 = ADVANCED_FACE ( 'NONE', ( #221, #244 ), #265, .T. ) ;
#106 = APPROVAL_DATE_TIME ( #215, #121 ) ;
#107 = ORIENTED_EDGE ( 'NONE', *, *, #176, .T. ) ;
#108 = CARTESIAN_POINT ( 'NONE',  ( 1.222018468595096201E-14, -0.8000000000000008216, 3.499999999999998668 ) ) ;
#109 = ORIENTED_EDGE ( 'NONE', *, *, #279, .T. ) ;
#110 = CALENDAR_DATE ( 2021, 8, 11 ) ;
#111 = ORIENTED_EDGE ( 'NONE', *, *, #273, .F. ) ;
#112 = DIRECTION ( 'NONE',  ( 3.491481338843133355E-15, -1.224646799147353454E-16, 1.000000000000000000 ) ) ;
#113 = PERSON_AND_ORGANIZATION ( #213, #65 ) ;
#114 = DIRECTION ( 'NONE',  ( -4.183573618734778004E-31, -1.000000000000000000, -1.198223107250220118E-16 ) ) ;
#115 = DIRECTION ( 'NONE',  ( 3.491481338843133355E-15, -1.198223107250220118E-16, 1.000000000000000000 ) ) ;
#116 = DIRECTION ( 'NONE',  ( -4.278413955889276816E-31, -1.000000000000000000, -1.198223107250220118E-16 ) ) ;
#117 = DIRECTION ( 'NONE',  ( -3.491481338843133355E-15, 1.224646799147353454E-16, -1.000000000000000000 ) ) ;
#118 = DIRECTION ( 'NONE',  ( 3.491481338843133355E-15, -1.198223107250220118E-16, 1.000000000000000000 ) ) ;
#119 = DIRECTION ( 'NONE',  ( -3.491481338843133355E-15, 1.224646799147353454E-16, -1.000000000000000000 ) ) ;
#120 = DIRECTION ( 'NONE',  ( -4.183573618734778004E-31, -1.000000000000000000, -1.198223107250220118E-16 ) ) ;
#121 = APPROVAL ( #82, 'UNSPECIFIED' ) ;
#122 = FACE_OUTER_BOUND ( 'NONE', #261, .T. ) ;
#123 = ADVANCED_FACE ( 'NONE', ( #197, #202 ), #169, .F. ) ;
#124 = COORDINATED_UNIVERSAL_TIME_OFFSET ( 1, 0, .AHEAD. ) ;
#125 = PERSON_AND_ORGANIZATION_ROLE ( 'creator' ) ;
#126 = AXIS2_PLACEMENT_3D ( 'NONE', #237, #164, #289 ) ;
#127 = CARTESIAN_POINT ( 'NONE',  ( 2.444036937190195558E-14, -1.633974596215566288, 7.000000000000006217 ) ) ;
#128 = ORIENTED_EDGE ( 'NONE', *, *, #234, .T. ) ;
#129 = ADVANCED_FACE ( 'NONE', ( #17 ), #299, .F. ) ;
#130 = EDGE_LOOP ( 'NONE', ( #296 ) ) ;
#131 = FACE_OUTER_BOUND ( 'NONE', #68, .T. ) ;
#132 = FACE_BOUND ( 'NONE', #246, .T. ) ;
#133 = DIRECTION ( 'NONE',  ( 3.491481338843133355E-15, -1.198223107250220118E-16, 1.000000000000000000 ) ) ;
#134 = EDGE_CURVE ( 'NONE', #228, #228, #135, .T. ) ;
#135 = CIRCLE ( 'NONE', #287, 0.8761204674887143051 ) ;
#136 = EDGE_LOOP ( 'NONE', ( #57 ) ) ;
#137 = APPROVAL_PERSON_ORGANIZATION ( #167, #178, #286 ) ;
#138 = CARTESIAN_POINT ( 'NONE',  ( 2.665387984388912288E-14, -1.999999999999999556, 7.633974596215545638 ) ) ;
#139 = CARTESIAN_POINT ( 'NONE',  ( 1.355631674873811596E-14, -0.8761204674887147492, 3.882683432365089615 ) ) ;
#140 = DIRECTION ( 'NONE',  ( 3.491481338843133355E-15, -1.198223107250220118E-16, 1.000000000000000000 ) ) ;
#141 = CARTESIAN_POINT ( 'NONE',  ( 1.881511062542750073E-14, -1.500000000000001332, 5.388861861040819434 ) ) ;
#142 = CARTESIAN_POINT ( 'NONE',  ( 2.444036937190195558E-14, -8.387561750751548220E-16, 7.000000000000006217 ) ) ;
#143 = VERTEX_POINT ( 'NONE', #256 ) ;
#144 = AXIS2_PLACEMENT_3D ( 'NONE', #98, #140, #160 ) ;
#145 = LOCAL_TIME ( 15, 12, 38.00000000000000000, #5 ) ;
#146 = VERTEX_POINT ( 'NONE', #108 ) ;
#147 = DATE_AND_TIME ( #110, #39 ) ;
#148 = EDGE_LOOP ( 'NONE', ( #242 ) ) ;
#149 = SECURITY_CLASSIFICATION_LEVEL ( 'unclassified' ) ;
#150 = PERSON_AND_ORGANIZATION_ROLE ( 'classification_officer' ) ;
#151 = PLANE ( 'NONE',  #153 ) ;
#152 = ORIENTED_EDGE ( 'NONE', *, *, #284, .T. ) ;
#153 = AXIS2_PLACEMENT_3D ( 'NONE', #203, #87, #272 ) ;
#154 = DIRECTION ( 'NONE',  ( -3.491481338843133355E-15, 1.224646799147353454E-16, -1.000000000000000000 ) ) ;
#155 = DIRECTION ( 'NONE',  ( -4.275831445896959482E-31, -1.000000000000000000, -1.224646799147353454E-16 ) ) ;
#156 = EDGE_LOOP ( 'NONE', ( #11 ) ) ;
#157 = CIRCLE ( 'NONE', #24, 1.500000000000000666 ) ;
#158 = DIRECTION ( 'NONE',  ( 4.275831445896958607E-31, 1.000000000000000000, 1.224646799147353454E-16 ) ) ;
#159 = FACE_OUTER_BOUND ( 'NONE', #136, .T. ) ;
#160 = DIRECTION ( 'NONE',  ( 0.0000000000000000000, -1.000000000000000000, 0.0000000000000000000 ) ) ;
#161 = DIRECTION ( 'NONE',  ( 0.0000000000000000000, 1.000000000000000000, 0.0000000000000000000 ) ) ;
#162 = CARTESIAN_POINT ( 'NONE',  ( 1.355631674873811596E-14, -4.652321006797447626E-16, 3.882683432365089615 ) ) ;
#163 = EDGE_CURVE ( 'NONE', #49, #49, #184, .T. ) ;
#164 = DIRECTION ( 'NONE',  ( 0.0000000000000000000, 0.0000000000000000000, 1.000000000000000000 ) ) ;
#165 = APPROVAL ( #293, 'UNSPECIFIED' ) ;
#166 = ORIENTED_EDGE ( 'NONE', *, *, #284, .F. ) ;
#167 = PERSON_AND_ORGANIZATION ( #213, #65 ) ;
#168 = EDGE_LOOP ( 'NONE', ( #109 ) ) ;
#169 = TOROIDAL_SURFACE ( 'NONE', #64, 1.800000000000000488, 1.000000000000000000 ) ;
#170 =( NAMED_UNIT ( * ) PLANE_ANGLE_UNIT ( ) SI_UNIT ( $, .RADIAN. ) );
#171 = EDGE_LOOP ( 'NONE', ( #86 ) ) ;
#172 = VERTEX_POINT ( 'NONE', #80 ) ;
#173 = ADVANCED_FACE ( 'NONE', ( #71, #122 ), #192, .T. ) ;
#174 = AXIS2_PLACEMENT_3D ( 'NONE', #201, #294, #14 ) ;
#175 = EDGE_LOOP ( 'NONE', ( #52 ) ) ;
#176 = EDGE_CURVE ( 'NONE', #191, #191, #235, .T. ) ;
#177 = ORIENTED_EDGE ( 'NONE', *, *, #46, .F. ) ;
#178 = APPROVAL ( #31, 'UNSPECIFIED' ) ;
#179 = EDGE_LOOP ( 'NONE', ( #128 ) ) ;
#180 = AXIS2_PLACEMENT_3D ( 'NONE', #206, #205, #303 ) ;
#181 = ORIENTED_EDGE ( 'NONE', *, *, #163, .F. ) ;
#182 = DIRECTION ( 'NONE',  ( 0.0000000000000000000, -1.000000000000000000, 0.0000000000000000000 ) ) ;
#183 = DIRECTION ( 'NONE',  ( 3.491481338843133355E-15, -1.198223107250220118E-16, 1.000000000000000000 ) ) ;
#184 = CIRCLE ( 'NONE', #240, 1.500000000000000666 ) ;
#185 = CARTESIAN_POINT ( 'NONE',  ( 1.881511062542750073E-14, -6.457058803678533804E-16, 5.388861861040819434 ) ) ;
#186 = APPLICATION_CONTEXT ( 'configuration controlled 3d designs of mechanical parts and assemblies' ) ;
#187 = UNCERTAINTY_MEASURE_WITH_UNIT (LENGTH_MEASURE( 1.000000000000000082E-05 ), #258, 'distance_accuracy_value', 'NONE');
#188 = DIRECTION ( 'NONE',  ( 0.0000000000000000000, -1.000000000000000000, 0.0000000000000000000 ) ) ;
#189 = DIRECTION ( 'NONE',  ( 3.491481338843133355E-15, -1.198223107250220118E-16, 1.000000000000000000 ) ) ;
#190 = ADVANCED_FACE ( 'NONE', ( #280, #159 ), #25, .T. ) ;
#191 = VERTEX_POINT ( 'NONE', #127 ) ;
#192 = CONICAL_SURFACE ( 'NONE', #93, 1.500000000000000666, 0.3926990816987251387 ) ;
#193 = DATE_TIME_ROLE ( 'creation_date' ) ;
#194 = DATE_AND_TIME ( #214, #225 ) ;
#195 = CC_DESIGN_PERSON_AND_ORGANIZATION_ASSIGNMENT ( #236, #32, ( #245 ) ) ;
#196 = EDGE_LOOP ( 'NONE', ( #247 ) ) ;
#197 = FACE_OUTER_BOUND ( 'NONE', #179, .T. ) ;
#198 = AXIS2_PLACEMENT_3D ( 'NONE', #300, #183, #188 ) ;
#199 = PRODUCT ( '987585', '987585', '', ( #51 ) ) ;
#200 = DATE_AND_TIME ( #91, #45 ) ;
#201 = CARTESIAN_POINT ( 'NONE',  ( 2.665387984388912288E-14, -9.147204761346635210E-16, 7.633974596215545638 ) ) ;
#202 = FACE_OUTER_BOUND ( 'NONE', #156, .T. ) ;
#203 = CARTESIAN_POINT ( 'NONE',  ( 1.222018468595096801E-13, 1.199807826129480202E-32, 35.00000000000000000 ) ) ;
#204 = AXIS2_PLACEMENT_3D ( 'NONE', #94, #21, #232 ) ;
#205 = DIRECTION ( 'NONE',  ( 3.491481338843133355E-15, -1.198223107250220118E-16, 1.000000000000000000 ) ) ;
#206 = CARTESIAN_POINT ( 'NONE',  ( 0.0000000000000000000, 0.0000000000000000000, 0.0000000000000000000 ) ) ;
#207 = DIRECTION ( 'NONE',  ( 0.0000000000000000000, -1.000000000000000000, 0.0000000000000000000 ) ) ;
#208 = CC_DESIGN_PERSON_AND_ORGANIZATION_ASSIGNMENT ( #28, #150, ( #231 ) ) ;
#209 = CARTESIAN_POINT ( 'NONE',  ( 1.222018468595096517E-14, 1.499759782661854871E-32, 3.499999999999999556 ) ) ;
#210 = CARTESIAN_POINT ( 'NONE',  ( 0.0000000000000000000, 0.0000000000000000000, 0.0000000000000000000 ) ) ;
#211 = AXIS2_PLACEMENT_3D ( 'NONE', #62, #133, #114 ) ;
#212 = CALENDAR_DATE ( 2021, 8, 11 ) ;
#213 = PERSON ( 'UNSPECIFIED', 'UNSPECIFIED', 'UNSPECIFIED', ('UNSPECIFIED'), ('UNSPECIFIED'), ('UNSPECIFIED') ) ;
#214 = CALENDAR_DATE ( 2021, 8, 11 ) ;
#215 = DATE_AND_TIME ( #212, #145 ) ;
#216 = DIRECTION ( 'NONE',  ( 3.491481338843133355E-15, -1.198223107250220118E-16, 1.000000000000000000 ) ) ;
#217 = CC_DESIGN_DATE_AND_TIME_ASSIGNMENT ( #200, #271, ( #231 ) ) ;
#218 = AXIS2_PLACEMENT_3D ( 'NONE', #254, #233, #277 ) ;
#219 = CC_DESIGN_APPROVAL ( #178, ( #85 ) ) ;
#220 = CARTESIAN_POINT ( 'NONE',  ( 1.222018468595096801E-13, -4.286263797015737285E-15, 35.00000000000000000 ) ) ;
#221 = FACE_OUTER_BOUND ( 'NONE', #76, .T. ) ;
#222 = COORDINATED_UNIVERSAL_TIME_OFFSET ( 1, 0, .AHEAD. ) ;
#223 = DIRECTION ( 'NONE',  ( 0.0000000000000000000, 1.000000000000000000, 0.0000000000000000000 ) ) ;
#224 = CLOSED_SHELL ( 'NONE', ( #190, #105, #41, #22, #100, #227, #173, #123, #34 ) ) ;
#225 = LOCAL_TIME ( 15, 12, 38.00000000000000000, #124 ) ;
#226 = FACE_OUTER_BOUND ( 'NONE', #35, .T. ) ;
#227 = ADVANCED_FACE ( 'NONE', ( #74, #278 ), #253, .T. ) ;
#228 = VERTEX_POINT ( 'NONE', #139 ) ;
#229 = DIRECTION ( 'NONE',  ( 0.0000000000000000000, -1.000000000000000000, 0.0000000000000000000 ) ) ;
#230 = CARTESIAN_POINT ( 'NONE',  ( 1.222018468595096801E-13, -4.286263797015737285E-15, 35.00000000000000000 ) ) ;
#231 = SECURITY_CLASSIFICATION ( '', '', #149 ) ;
#232 = DIRECTION ( 'NONE',  ( -4.275831445896959482E-31, -1.000000000000000000, -1.224646799147353454E-16 ) ) ;
#233 = DIRECTION ( 'NONE',  ( -3.491481338843133355E-15, 1.224646799147353454E-16, -1.000000000000000000 ) ) ;
#234 = EDGE_CURVE ( 'NONE', #75, #75, #19, .T. ) ;
#235 = CIRCLE ( 'NONE', #8, 1.633974596215565400 ) ;
#236 = PERSON_AND_ORGANIZATION ( #213, #65 ) ;
#237 = CARTESIAN_POINT ( 'NONE',  ( 0.0000000000000000000, 0.0000000000000000000, 0.0000000000000000000 ) ) ;
#238 = EDGE_LOOP ( 'NONE', ( #111 ) ) ;
#239 = PERSON_AND_ORGANIZATION ( #213, #65 ) ;
#240 = AXIS2_PLACEMENT_3D ( 'NONE', #26, #255, #229 ) ;
#241 = ADVANCED_FACE ( 'NONE', ( #47, #96 ), #2, .T. ) ;
#242 = ORIENTED_EDGE ( 'NONE', *, *, #273, .T. ) ;
#243 = CARTESIAN_POINT ( 'NONE',  ( -3.346858894987822490E-31, 1.148590891798698083E-32, -9.585784858001760695E-17 ) ) ;
#244 = FACE_BOUND ( 'NONE', #148, .T. ) ;
#245 = PRODUCT_DEFINITION ( 'UNKNOWN', '', #85, #20 ) ;
#246 = EDGE_LOOP ( 'NONE', ( #107 ) ) ;
#247 = ORIENTED_EDGE ( 'NONE', *, *, #134, .T. ) ;
#248 = MANIFOLD_SOLID_BREP ( 'Corps-Déplacer/Copier1[2]', #33 ) ;
#249 = FACE_OUTER_BOUND ( 'NONE', #175, .T. ) ;
#250 = AXIS2_PLACEMENT_3D ( 'NONE', #252, #48, #120 ) ;
#251 = VERTEX_POINT ( 'NONE', #138 ) ;
#252 = CARTESIAN_POINT ( 'NONE',  ( 0.0000000000000000000, 0.0000000000000000000, 0.0000000000000000000 ) ) ;
#253 = CYLINDRICAL_SURFACE ( 'NONE', #180, 1.500000000000000666 ) ;
#254 = CARTESIAN_POINT ( 'NONE',  ( 1.208052543239724267E-13, -4.237277925049843857E-15, 34.60000000000000853 ) ) ;
#255 = DIRECTION ( 'NONE',  ( 3.491481338843133355E-15, -1.198223107250220118E-16, 1.000000000000000000 ) ) ;
#256 = CARTESIAN_POINT ( 'NONE',  ( 1.208052543239724267E-13, 1.999999999999995781, 34.60000000000000853 ) ) ;
#257 = ORIENTED_EDGE ( 'NONE', *, *, #27, .F. ) ;
#258 =( LENGTH_UNIT ( ) NAMED_UNIT ( * ) SI_UNIT ( .MILLI., .METRE. ) );
#259 = EDGE_LOOP ( 'NONE', ( #177 ) ) ;
#260 = PERSON_AND_ORGANIZATION ( #213, #65 ) ;
#261 = EDGE_LOOP ( 'NONE', ( #181 ) ) ;
#262 = CARTESIAN_POINT ( 'NONE',  ( 1.222018468595096201E-14, -0.8000000000000008216, 3.499999999999998668 ) ) ;
#263 = APPLICATION_CONTEXT ( 'configuration controlled 3d designs of mechanical parts and assemblies' ) ;
#264 = APPROVAL_DATE_TIME ( #194, #178 ) ;
#265 = CONICAL_SURFACE ( 'NONE', #58, 1.600000000000000089, 0.7853981633974512766 ) ;
#266 = CARTESIAN_POINT ( 'NONE',  ( 1.222018468595096517E-14, 1.499759782661854871E-32, 3.499999999999999556 ) ) ;
#267 = PLANE ( 'NONE',  #275 ) ;
#268 = AXIS2_PLACEMENT_3D ( 'NONE', #243, #216, #40 ) ;
#269 = CC_DESIGN_APPROVAL ( #165, ( #231 ) ) ;
#270 = ORIENTED_EDGE ( 'NONE', *, *, #176, .F. ) ;
#271 = DATE_TIME_ROLE ( 'classification_date' ) ;
#272 = DIRECTION ( 'NONE',  ( 4.275831445896959482E-31, 1.000000000000000000, 1.224646799147353454E-16 ) ) ;
#273 = EDGE_CURVE ( 'NONE', #172, #172, #83, .T. ) ;
#274 = VERTEX_POINT ( 'NONE', #69 ) ;
#275 = AXIS2_PLACEMENT_3D ( 'NONE', #266, #112, #155 ) ;
#276 = CC_DESIGN_APPROVAL ( #121, ( #245 ) ) ;
#277 = DIRECTION ( 'NONE',  ( 0.0000000000000000000, 1.000000000000000000, 0.0000000000000000000 ) ) ;
#278 = FACE_OUTER_BOUND ( 'NONE', #37, .T. ) ;
#279 = EDGE_CURVE ( 'NONE', #146, #146, #29, .T. ) ;
#280 = FACE_OUTER_BOUND ( 'NONE', #78, .T. ) ;
#281 = DIRECTION ( 'NONE',  ( 0.0000000000000000000, -1.000000000000000000, 0.0000000000000000000 ) ) ;
#282 = APPLICATION_PROTOCOL_DEFINITION ( 'international standard', 'config_control_design', 1994, #186 ) ;
#283 = ORIENTED_EDGE ( 'NONE', *, *, #163, .T. ) ;
#284 = EDGE_CURVE ( 'NONE', #143, #143, #53, .T. ) ;
#285 = EDGE_LOOP ( 'NONE', ( #283 ) ) ;
#286 = APPROVAL_ROLE ( '' ) ;
#287 = AXIS2_PLACEMENT_3D ( 'NONE', #162, #118, #281 ) ;
#288 = PRODUCT_DEFINITION_SHAPE ( 'NONE', 'NONE',  #245 ) ;
#289 = DIRECTION ( 'NONE',  ( 1.000000000000000000, 0.0000000000000000000, 0.0000000000000000000 ) ) ;
#290 = DIRECTION ( 'NONE',  ( 3.491481338843133355E-15, -1.198223107250220118E-16, 1.000000000000000000 ) ) ;
#291 = AXIS2_PLACEMENT_3D ( 'NONE', #230, #117, #161 ) ;
#292 = ADVANCED_FACE ( 'NONE', ( #95 ), #73, .T. ) ;
#293 = APPROVAL_STATUS ( 'not_yet_approved' ) ;
#294 = DIRECTION ( 'NONE',  ( 3.491481338843133355E-15, -1.198223107250220118E-16, 1.000000000000000000 ) ) ;
#295 = APPROVAL_ROLE ( '' ) ;
#296 = ORIENTED_EDGE ( 'NONE', *, *, #279, .F. ) ;
#297 = FACE_OUTER_BOUND ( 'NONE', #63, .T. ) ;
#298 = APPROVAL_PERSON_ORGANIZATION ( #113, #165, #295 ) ;
#299 = PLANE ( 'NONE',  #204 ) ;
#300 = CARTESIAN_POINT ( 'NONE',  ( 1.222018468595096201E-14, -4.193780875375769179E-16, 3.499999999999998668 ) ) ;
#301 = DIRECTION ( 'NONE',  ( 3.491481338843133355E-15, -1.224646799147353454E-16, 1.000000000000000000 ) ) ;
#302 = APPROVAL_PERSON_ORGANIZATION ( #239, #121, #30 ) ;
#303 = DIRECTION ( 'NONE',  ( -4.183573618734778879E-31, -1.000000000000000000, -1.198223107250220364E-16 ) ) ;
ENDSEC;
END-ISO-10303-21;
