ISO-10303-21;
HEADER;
FILE_DESCRIPTION (( 'STEP AP203' ),
    '1' );
FILE_NAME ('987584.step',
    '2021-11-08T14:12:37',
    ( '' ),
    ( '' ),
    'SwSTEP 2.0',
    'SolidWorks 2019',
    '' );
FILE_SCHEMA (( 'CONFIG_CONTROL_DESIGN' ));
ENDSEC;

DATA;
#1 = AXIS2_PLACEMENT_3D ( 'NONE', #16, #48, #45 ) ;
#2 = CALENDAR_DATE ( 2021, 8, 11 ) ;
#3 = DATE_AND_TIME ( #97, #126 ) ;
#4 = COORDINATED_UNIVERSAL_TIME_OFFSET ( 1, 0, .AHEAD. ) ;
#5 = EDGE_CURVE ( 'NONE', #58, #58, #120, .T. ) ;
#6 = DIRECTION ( 'NONE',  ( -3.491481338843133355E-15, 1.224646799147353454E-16, -1.000000000000000000 ) ) ;
#7 = SECURITY_CLASSIFICATION ( '', '', #193 ) ;
#8 = DIRECTION ( 'NONE',  ( 3.491481338843133355E-15, -1.224646799147353454E-16, 1.000000000000000000 ) ) ;
#9 = CARTESIAN_POINT ( 'NONE',  ( 1.222018468595096801E-13, -4.286263797015737285E-15, 35.00000000000000000 ) ) ;
#10 = PLANE ( 'NONE',  #11 ) ;
#11 = AXIS2_PLACEMENT_3D ( 'NONE', #168, #65, #85 ) ;
#12 = DIRECTION ( 'NONE',  ( 0.0000000000000000000, 1.000000000000000000, 0.0000000000000000000 ) ) ;
#13 = UNCERTAINTY_MEASURE_WITH_UNIT (LENGTH_MEASURE( 1.000000000000000082E-05 ), #175, 'distance_accuracy_value', 'NONE');
#14 = PRODUCT_DEFINITION ( 'UNKNOWN', '', #26, #172 ) ;
#15 = APPROVAL_DATE_TIME ( #112, #139 ) ;
#16 = CARTESIAN_POINT ( 'NONE',  ( 0.0000000000000000000, 0.0000000000000000000, 0.0000000000000000000 ) ) ;
#17 = APPROVAL_PERSON_ORGANIZATION ( #31, #139, #114 ) ;
#18 = APPLICATION_PROTOCOL_DEFINITION ( 'international standard', 'config_control_design', 1994, #22 ) ;
#19 = CARTESIAN_POINT ( 'NONE',  ( 0.0000000000000000000, 0.0000000000000000000, 0.0000000000000000000 ) ) ;
#20 = CARTESIAN_POINT ( 'NONE',  ( 1.745740669421566678E-14, 1.999999999999995781, 5.000000000000000000 ) ) ;
#21 = EDGE_LOOP ( 'NONE', ( #123 ) ) ;
#22 = APPLICATION_CONTEXT ( 'configuration controlled 3d designs of mechanical parts and assemblies' ) ;
#23 = EDGE_CURVE ( 'NONE', #156, #156, #108, .T. ) ;
#24 = CARTESIAN_POINT ( 'NONE',  ( 1.222018468595096801E-13, 1.199807826129480202E-32, 35.00000000000000000 ) ) ;
#25 = EDGE_LOOP ( 'NONE', ( #57 ) ) ;
#26 = PRODUCT_DEFINITION_FORMATION_WITH_SPECIFIED_SOURCE ( 'ANY', '', #80, .NOT_KNOWN. ) ;
#27 = FACE_OUTER_BOUND ( 'NONE', #165, .T. ) ;
#28 = FACE_OUTER_BOUND ( 'NONE', #107, .T. ) ;
#29 = CARTESIAN_POINT ( 'NONE',  ( 1.745740669421566678E-14, -6.123233995736767268E-16, 5.000000000000000000 ) ) ;
#30 = ADVANCED_FACE ( 'NONE', ( #167 ), #67, .T. ) ;
#31 = PERSON_AND_ORGANIZATION ( #78, #202 ) ;
#32 = PERSON_AND_ORGANIZATION ( #78, #202 ) ;
#33 = AXIS2_PLACEMENT_3D ( 'NONE', #104, #8, #184 ) ;
#34 = PERSON_AND_ORGANIZATION_ROLE ( 'creator' ) ;
#35 = ORIENTED_EDGE ( 'NONE', *, *, #169, .F. ) ;
#36 = PERSON_AND_ORGANIZATION ( #78, #202 ) ;
#37 = CC_DESIGN_APPROVAL ( #87, ( #7 ) ) ;
#38 = DIRECTION ( 'NONE',  ( 3.491481338843133355E-15, -1.224646799147353454E-16, 1.000000000000000000 ) ) ;
#39 = FACE_OUTER_BOUND ( 'NONE', #95, .T. ) ;
#40 = PLANE ( 'NONE',  #33 ) ;
#41 = DIRECTION ( 'NONE',  ( -3.491481338843133355E-15, 1.224646799147353454E-16, -1.000000000000000000 ) ) ;
#42 = CC_DESIGN_PERSON_AND_ORGANIZATION_ASSIGNMENT ( #110, #174, ( #26 ) ) ;
#43 = CLOSED_SHELL ( 'NONE', ( #83, #176, #30 ) ) ;
#44 = APPROVAL_STATUS ( 'not_yet_approved' ) ;
#45 = DIRECTION ( 'NONE',  ( 1.000000000000000000, 0.0000000000000000000, 0.0000000000000000000 ) ) ;
#46 = APPROVAL_STATUS ( 'not_yet_approved' ) ;
#47 = LOCAL_TIME ( 15, 12, 37.00000000000000000, #161 ) ;
#48 = DIRECTION ( 'NONE',  ( 0.0000000000000000000, 0.0000000000000000000, 1.000000000000000000 ) ) ;
#49 = CC_DESIGN_PERSON_AND_ORGANIZATION_ASSIGNMENT ( #36, #34, ( #14 ) ) ;
#50 = AXIS2_PLACEMENT_3D ( 'NONE', #149, #6, #12 ) ;
#51 = CARTESIAN_POINT ( 'NONE',  ( 1.745740669421566678E-14, -6.123233995736767268E-16, 5.000000000000000000 ) ) ;
#52 = FACE_OUTER_BOUND ( 'NONE', #25, .T. ) ;
#53 = DIRECTION ( 'NONE',  ( 0.0000000000000000000, 1.000000000000000000, 0.0000000000000000000 ) ) ;
#54 = CIRCLE ( 'NONE', #61, 1.600000000000000089 ) ;
#55 = ADVANCED_FACE ( 'NONE', ( #106, #164 ), #137, .T. ) ;
#56 = FACE_OUTER_BOUND ( 'NONE', #121, .T. ) ;
#57 = ORIENTED_EDGE ( 'NONE', *, *, #5, .F. ) ;
#58 = VERTEX_POINT ( 'NONE', #157 ) ;
#59 = CYLINDRICAL_SURFACE ( 'NONE', #142, 1.999999999999995781 ) ;
#60 = CIRCLE ( 'NONE', #50, 2.000000000000000000 ) ;
#61 = AXIS2_PLACEMENT_3D ( 'NONE', #124, #41, #154 ) ;
#62 = ADVANCED_FACE ( 'NONE', ( #56 ), #40, .F. ) ;
#63 = CARTESIAN_POINT ( 'NONE',  ( 1.745740669421566678E-14, 1.999999999999995781, 5.000000000000000000 ) ) ;
#64 = CC_DESIGN_DATE_AND_TIME_ASSIGNMENT ( #3, #178, ( #7 ) ) ;
#65 = DIRECTION ( 'NONE',  ( 3.491481338843133355E-15, -1.224646799147353454E-16, 1.000000000000000000 ) ) ;
#66 = DIRECTION ( 'NONE',  ( 4.275831445896958607E-31, 1.000000000000000000, 1.224646799147353454E-16 ) ) ;
#67 = PLANE ( 'NONE',  #122 ) ;
#68 = CARTESIAN_POINT ( 'NONE',  ( 0.0000000000000000000, 0.0000000000000000000, 0.0000000000000000000 ) ) ;
#69 = CIRCLE ( 'NONE', #179, 1.999999999999996225 ) ;
#70 = FACE_OUTER_BOUND ( 'NONE', #185, .T. ) ;
#71 = PERSON_AND_ORGANIZATION ( #78, #202 ) ;
#72 = CALENDAR_DATE ( 2021, 8, 11 ) ;
#73 = AXIS2_PLACEMENT_3D ( 'NONE', #9, #182, #53 ) ;
#74 = PERSON_AND_ORGANIZATION ( #78, #202 ) ;
#75 =( NAMED_UNIT ( * ) PLANE_ANGLE_UNIT ( ) SI_UNIT ( $, .RADIAN. ) );
#76 = ADVANCED_FACE ( 'NONE', ( #39, #28 ), #151, .T. ) ;
#77 = DATE_TIME_ROLE ( 'creation_date' ) ;
#78 = PERSON ( 'UNSPECIFIED', 'UNSPECIFIED', 'UNSPECIFIED', ('UNSPECIFIED'), ('UNSPECIFIED'), ('UNSPECIFIED') ) ;
#79 = PERSON_AND_ORGANIZATION ( #78, #202 ) ;
#80 = PRODUCT ( '987584', '987584', '', ( #127 ) ) ;
#81 = PERSON_AND_ORGANIZATION_ROLE ( 'classification_officer' ) ;
#82 = SHAPE_DEFINITION_REPRESENTATION ( #118, #155 ) ;
#83 = ADVANCED_FACE ( 'NONE', ( #196 ), #10, .F. ) ;
#84 = ORIENTED_EDGE ( 'NONE', *, *, #5, .T. ) ;
#85 = DIRECTION ( 'NONE',  ( -4.275831445896959482E-31, -1.000000000000000000, -1.224646799147353454E-16 ) ) ;
#86 = DIRECTION ( 'NONE',  ( 4.275831445896959482E-31, 1.000000000000000000, 1.224646799147353207E-16 ) ) ;
#87 = APPROVAL ( #99, 'UNSPECIFIED' ) ;
#88 = EDGE_LOOP ( 'NONE', ( #134 ) ) ;
#89 = CALENDAR_DATE ( 2021, 8, 11 ) ;
#90 = CALENDAR_DATE ( 2021, 8, 11 ) ;
#91 = CARTESIAN_POINT ( 'NONE',  ( 1.208052543239724267E-13, 1.999999999999995781, 34.60000000000000853 ) ) ;
#92 = AXIS2_PLACEMENT_3D ( 'NONE', #125, #150, #86 ) ;
#93 = PERSON_AND_ORGANIZATION_ROLE ( 'design_owner' ) ;
#94 = CC_DESIGN_PERSON_AND_ORGANIZATION_ASSIGNMENT ( #32, #147, ( #26 ) ) ;
#95 = EDGE_LOOP ( 'NONE', ( #115 ) ) ;
#96 = ORIENTED_EDGE ( 'NONE', *, *, #101, .F. ) ;
#97 = CALENDAR_DATE ( 2021, 8, 11 ) ;
#98 = COORDINATED_UNIVERSAL_TIME_OFFSET ( 1, 0, .AHEAD. ) ;
#99 = APPROVAL_STATUS ( 'not_yet_approved' ) ;
#100 = MANIFOLD_SOLID_BREP ( 'Corps-Déplacer/Copier1[1]', #166 ) ;
#101 = EDGE_CURVE ( 'NONE', #188, #188, #54, .T. ) ;
#102 = MANIFOLD_SOLID_BREP ( 'Corps-Déplacer/Copier1[2]', #43 ) ;
#103 = ORIENTED_EDGE ( 'NONE', *, *, #169, .T. ) ;
#104 = CARTESIAN_POINT ( 'NONE',  ( 1.745740669421566678E-14, 1.499759782661854871E-32, 5.000000000000000000 ) ) ;
#105 = DIRECTION ( 'NONE',  ( -3.491481338843133355E-15, 1.224646799147353454E-16, -1.000000000000000000 ) ) ;
#106 = FACE_OUTER_BOUND ( 'NONE', #88, .T. ) ;
#107 = EDGE_LOOP ( 'NONE', ( #183 ) ) ;
#108 = CIRCLE ( 'NONE', #177, 1.999999999999996225 ) ;
#109 = COORDINATED_UNIVERSAL_TIME_OFFSET ( 1, 0, .AHEAD. ) ;
#110 = PERSON_AND_ORGANIZATION ( #78, #202 ) ;
#111 = PRODUCT_RELATED_PRODUCT_CATEGORY ( 'detail', '', ( #80 ) ) ;
#112 = DATE_AND_TIME ( #89, #158 ) ;
#113 = CC_DESIGN_APPROVAL ( #139, ( #14 ) ) ;
#114 = APPROVAL_ROLE ( '' ) ;
#115 = ORIENTED_EDGE ( 'NONE', *, *, #23, .F. ) ;
#116 = LOCAL_TIME ( 15, 12, 37.00000000000000000, #109 ) ;
#117 = DATE_AND_TIME ( #2, #129 ) ;
#118 = PRODUCT_DEFINITION_SHAPE ( 'NONE', 'NONE',  #14 ) ;
#119 = EDGE_CURVE ( 'NONE', #159, #159, #60, .T. ) ;
#120 = CIRCLE ( 'NONE', #92, 1.999999999999995781 ) ;
#121 = EDGE_LOOP ( 'NONE', ( #162 ) ) ;
#122 = AXIS2_PLACEMENT_3D ( 'NONE', #181, #38, #199 ) ;
#123 = ORIENTED_EDGE ( 'NONE', *, *, #101, .T. ) ;
#124 = CARTESIAN_POINT ( 'NONE',  ( 1.222018468595096801E-13, -4.286263797015737285E-15, 35.00000000000000000 ) ) ;
#125 = CARTESIAN_POINT ( 'NONE',  ( -6.413786353522001631E-31, 2.249653418127173483E-32, -1.836981421658448278E-16 ) ) ;
#126 = LOCAL_TIME ( 15, 12, 37.00000000000000000, #4 ) ;
#127 = MECHANICAL_CONTEXT ( 'NONE', #22, 'mechanical' ) ;
#128 =( NAMED_UNIT ( * ) SI_UNIT ( $, .STERADIAN. ) SOLID_ANGLE_UNIT ( ) );
#129 = LOCAL_TIME ( 15, 12, 37.00000000000000000, #98 ) ;
#130 = VERTEX_POINT ( 'NONE', #63 ) ;
#131 = PERSON_AND_ORGANIZATION ( #78, #202 ) ;
#132 = APPROVAL ( #44, 'UNSPECIFIED' ) ;
#133 =( GEOMETRIC_REPRESENTATION_CONTEXT ( 3 ) GLOBAL_UNCERTAINTY_ASSIGNED_CONTEXT ( ( #13 ) ) GLOBAL_UNIT_ASSIGNED_CONTEXT ( ( #175, #75, #128 ) ) REPRESENTATION_CONTEXT ( 'NONE', 'WORKASPACE' ) );
#134 = ORIENTED_EDGE ( 'NONE', *, *, #119, .F. ) ;
#135 = DIRECTION ( 'NONE',  ( -3.491481338843133355E-15, 1.224646799147353454E-16, -1.000000000000000000 ) ) ;
#136 = DIRECTION ( 'NONE',  ( 0.0000000000000000000, 1.000000000000000000, 0.0000000000000000000 ) ) ;
#137 = CONICAL_SURFACE ( 'NONE', #73, 1.600000000000000089, 0.7853981633974512766 ) ;
#138 = DIRECTION ( 'NONE',  ( -3.491481338843133355E-15, 1.224646799147353454E-16, -1.000000000000000000 ) ) ;
#139 = APPROVAL ( #46, 'UNSPECIFIED' ) ;
#140 = PLANE ( 'NONE',  #180 ) ;
#141 = APPLICATION_CONTEXT ( 'configuration controlled 3d designs of mechanical parts and assemblies' ) ;
#142 = AXIS2_PLACEMENT_3D ( 'NONE', #19, #144, #160 ) ;
#143 = DATE_AND_TIME ( #90, #116 ) ;
#144 = DIRECTION ( 'NONE',  ( -3.491481338843133355E-15, 1.224646799147353454E-16, -1.000000000000000000 ) ) ;
#145 = AXIS2_PLACEMENT_3D ( 'NONE', #68, #138, #66 ) ;
#146 = APPROVAL_DATE_TIME ( #117, #87 ) ;
#147 = PERSON_AND_ORGANIZATION_ROLE ( 'design_supplier' ) ;
#148 = DIRECTION ( 'NONE',  ( 4.275831445896959482E-31, 1.000000000000000000, 1.224646799147353454E-16 ) ) ;
#149 = CARTESIAN_POINT ( 'NONE',  ( 1.208052543239724267E-13, -4.237277925049843857E-15, 34.60000000000000853 ) ) ;
#150 = DIRECTION ( 'NONE',  ( -3.491481338843133355E-15, 1.224646799147353454E-16, -1.000000000000000000 ) ) ;
#151 = CYLINDRICAL_SURFACE ( 'NONE', #145, 1.999999999999998224 ) ;
#152 = CC_DESIGN_PERSON_AND_ORGANIZATION_ASSIGNMENT ( #131, #81, ( #7 ) ) ;
#153 = CC_DESIGN_SECURITY_CLASSIFICATION ( #7, ( #26 ) ) ;
#154 = DIRECTION ( 'NONE',  ( 0.0000000000000000000, 1.000000000000000000, 0.0000000000000000000 ) ) ;
#155 = ADVANCED_BREP_SHAPE_REPRESENTATION ( '987584', ( #100, #102, #1 ), #133 ) ;
#156 = VERTEX_POINT ( 'NONE', #20 ) ;
#157 = CARTESIAN_POINT ( 'NONE',  ( 2.137876538271899380E-31, 1.999999999999995781, 6.123121766362532060E-17 ) ) ;
#158 = LOCAL_TIME ( 15, 12, 37.00000000000000000, #191 ) ;
#159 = VERTEX_POINT ( 'NONE', #91 ) ;
#160 = DIRECTION ( 'NONE',  ( 4.275831445896959482E-31, 1.000000000000000000, 1.224646799147353207E-16 ) ) ;
#161 = COORDINATED_UNIVERSAL_TIME_OFFSET ( 1, 0, .AHEAD. ) ;
#162 = ORIENTED_EDGE ( 'NONE', *, *, #23, .T. ) ;
#163 = ADVANCED_FACE ( 'NONE', ( #70 ), #140, .F. ) ;
#164 = FACE_BOUND ( 'NONE', #21, .T. ) ;
#165 = EDGE_LOOP ( 'NONE', ( #103 ) ) ;
#166 = CLOSED_SHELL ( 'NONE', ( #62, #76, #55, #163 ) ) ;
#167 = FACE_OUTER_BOUND ( 'NONE', #198, .T. ) ;
#168 = CARTESIAN_POINT ( 'NONE',  ( -3.206893176761000815E-31, 1.124826709063586741E-32, -9.184907108292241390E-17 ) ) ;
#169 = EDGE_CURVE ( 'NONE', #130, #130, #69, .T. ) ;
#170 = EDGE_LOOP ( 'NONE', ( #84 ) ) ;
#171 = CC_DESIGN_APPROVAL ( #132, ( #26 ) ) ;
#172 = DESIGN_CONTEXT ( 'detailed design', #141, 'design' ) ;
#173 = APPLICATION_PROTOCOL_DEFINITION ( 'international standard', 'config_control_design', 1994, #141 ) ;
#174 = PERSON_AND_ORGANIZATION_ROLE ( 'creator' ) ;
#175 =( LENGTH_UNIT ( ) NAMED_UNIT ( * ) SI_UNIT ( .MILLI., .METRE. ) );
#176 = ADVANCED_FACE ( 'NONE', ( #52, #27 ), #59, .T. ) ;
#177 = AXIS2_PLACEMENT_3D ( 'NONE', #29, #105, #136 ) ;
#178 = DATE_TIME_ROLE ( 'classification_date' ) ;
#179 = AXIS2_PLACEMENT_3D ( 'NONE', #51, #135, #197 ) ;
#180 = AXIS2_PLACEMENT_3D ( 'NONE', #24, #200, #148 ) ;
#181 = CARTESIAN_POINT ( 'NONE',  ( 1.745740669421566678E-14, 1.499759782661854871E-32, 5.000000000000000000 ) ) ;
#182 = DIRECTION ( 'NONE',  ( -3.491481338843133355E-15, 1.224646799147353454E-16, -1.000000000000000000 ) ) ;
#183 = ORIENTED_EDGE ( 'NONE', *, *, #119, .T. ) ;
#184 = DIRECTION ( 'NONE',  ( -4.275831445896959482E-31, -1.000000000000000000, -1.224646799147353454E-16 ) ) ;
#185 = EDGE_LOOP ( 'NONE', ( #96 ) ) ;
#186 = CARTESIAN_POINT ( 'NONE',  ( 1.222018468595096801E-13, 1.599999999999995648, 35.00000000000000000 ) ) ;
#187 = DATE_AND_TIME ( #72, #47 ) ;
#188 = VERTEX_POINT ( 'NONE', #186 ) ;
#189 = CC_DESIGN_PERSON_AND_ORGANIZATION_ASSIGNMENT ( #74, #93, ( #80 ) ) ;
#190 = APPROVAL_PERSON_ORGANIZATION ( #79, #87, #194 ) ;
#191 = COORDINATED_UNIVERSAL_TIME_OFFSET ( 1, 0, .AHEAD. ) ;
#192 = APPROVAL_PERSON_ORGANIZATION ( #71, #132, #201 ) ;
#193 = SECURITY_CLASSIFICATION_LEVEL ( 'unclassified' ) ;
#194 = APPROVAL_ROLE ( '' ) ;
#195 = CC_DESIGN_DATE_AND_TIME_ASSIGNMENT ( #187, #77, ( #14 ) ) ;
#196 = FACE_OUTER_BOUND ( 'NONE', #170, .T. ) ;
#197 = DIRECTION ( 'NONE',  ( 0.0000000000000000000, 1.000000000000000000, 0.0000000000000000000 ) ) ;
#198 = EDGE_LOOP ( 'NONE', ( #35 ) ) ;
#199 = DIRECTION ( 'NONE',  ( -4.275831445896959482E-31, -1.000000000000000000, -1.224646799147353454E-16 ) ) ;
#200 = DIRECTION ( 'NONE',  ( -3.491481338843133355E-15, 1.224646799147353454E-16, -1.000000000000000000 ) ) ;
#201 = APPROVAL_ROLE ( '' ) ;
#202 = ORGANIZATION ( 'UNSPECIFIED', 'UNSPECIFIED', '' ) ;
#203 = APPROVAL_DATE_TIME ( #143, #132 ) ;
ENDSEC;
END-ISO-10303-21;
