ISO-10303-21;
HEADER;
FILE_DESCRIPTION (( 'STEP AP203' ),
    '1' );
FILE_NAME ('987583.step',
    '2021-11-08T14:12:37',
    ( '' ),
    ( '' ),
    'SwSTEP 2.0',
    'SolidWorks 2019',
    '' );
FILE_SCHEMA (( 'CONFIG_CONTROL_DESIGN' ));
ENDSEC;

DATA;
#1 = EDGE_LOOP ( 'NONE', ( #94 ) ) ;
#2 = DATE_TIME_ROLE ( 'creation_date' ) ;
#3 = FACE_OUTER_BOUND ( 'NONE', #68, .T. ) ;
#4 = AXIS2_PLACEMENT_3D ( 'NONE', #130, #21, #153 ) ;
#5 = DIRECTION ( 'NONE',  ( -4.275831445896959482E-31, -1.000000000000000000, -1.224646799147353454E-16 ) ) ;
#6 = PERSON_AND_ORGANIZATION_ROLE ( 'creator' ) ;
#7 = APPROVAL ( #89, 'UNSPECIFIED' ) ;
#8 = CIRCLE ( 'NONE', #67, 2.000000000000000000 ) ;
#9 = CARTESIAN_POINT ( 'NONE',  ( 2.094888803305880013E-14, -8.673617379884035472E-16, 6.000000000000000000 ) ) ;
#10 = FACE_OUTER_BOUND ( 'NONE', #111, .T. ) ;
#11 = EDGE_CURVE ( 'NONE', #269, #269, #276, .T. ) ;
#12 = DIRECTION ( 'NONE',  ( 3.491481338843133355E-15, -1.198223107250220118E-16, 1.000000000000000000 ) ) ;
#13 = LOCAL_TIME ( 15, 12, 37.00000000000000000, #23 ) ;
#14 = CARTESIAN_POINT ( 'NONE',  ( 8.728703347107828655E-15, -0.7000000000000007327, 2.499999999999998668 ) ) ;
#15 = CARTESIAN_POINT ( 'NONE',  ( 2.094888803305880013E-14, -1.500000000000001110, 6.000000000000000000 ) ) ;
#16 = EDGE_CURVE ( 'NONE', #201, #201, #124, .T. ) ;
#17 = FACE_OUTER_BOUND ( 'NONE', #72, .T. ) ;
#18 = LOCAL_TIME ( 15, 12, 37.00000000000000000, #41 ) ;
#19 = CARTESIAN_POINT ( 'NONE',  ( 2.490813917446758460E-14, -8.548093207721536245E-16, 7.133974596215554520 ) ) ;
#20 = ORIENTED_EDGE ( 'NONE', *, *, #229, .T. ) ;
#21 = DIRECTION ( 'NONE',  ( 0.0000000000000000000, 0.0000000000000000000, 1.000000000000000000 ) ) ;
#22 = ORIENTED_EDGE ( 'NONE', *, *, #229, .F. ) ;
#23 = COORDINATED_UNIVERSAL_TIME_OFFSET ( 1, 0, .AHEAD. ) ;
#24 = EDGE_LOOP ( 'NONE', ( #22 ) ) ;
#25 = AXIS2_PLACEMENT_3D ( 'NONE', #101, #218, #5 ) ;
#26 = DATE_AND_TIME ( #209, #102 ) ;
#27 = ORIENTED_EDGE ( 'NONE', *, *, #37, .F. ) ;
#28 = DATE_TIME_ROLE ( 'classification_date' ) ;
#29 = FACE_BOUND ( 'NONE', #132, .T. ) ;
#30 = DIRECTION ( 'NONE',  ( 3.491481338843133355E-15, -1.224646799147353454E-16, 1.000000000000000000 ) ) ;
#31 = AXIS2_PLACEMENT_3D ( 'NONE', #289, #100, #122 ) ;
#32 = AXIS2_PLACEMENT_3D ( 'NONE', #186, #298, #70 ) ;
#33 = CARTESIAN_POINT ( 'NONE',  ( 1.616654744668513118E-14, -5.548112344055544675E-16, 4.630283217278128305 ) ) ;
#34 = PERSON ( 'UNSPECIFIED', 'UNSPECIFIED', 'UNSPECIFIED', ('UNSPECIFIED'), ('UNSPECIFIED'), ('UNSPECIFIED') ) ;
#35 = CIRCLE ( 'NONE', #99, 1.500000000000000444 ) ;
#36 = DIRECTION ( 'NONE',  ( 3.491481338843133355E-15, -1.198223107250220118E-16, 1.000000000000000000 ) ) ;
#37 = EDGE_CURVE ( 'NONE', #107, #107, #197, .T. ) ;
#38 = PLANE ( 'NONE',  #152 ) ;
#39 = FACE_BOUND ( 'NONE', #182, .T. ) ;
#40 = CC_DESIGN_DATE_AND_TIME_ASSIGNMENT ( #50, #2, ( #115 ) ) ;
#41 = COORDINATED_UNIVERSAL_TIME_OFFSET ( 1, 0, .AHEAD. ) ;
#42 = CALENDAR_DATE ( 2021, 8, 11 ) ;
#43 = AXIS2_PLACEMENT_3D ( 'NONE', #155, #227, #251 ) ;
#44 = ORIENTED_EDGE ( 'NONE', *, *, #236, .T. ) ;
#45 = ADVANCED_FACE ( 'NONE', ( #179, #48 ), #135, .T. ) ;
#46 = EDGE_LOOP ( 'NONE', ( #27 ) ) ;
#47 = PERSON_AND_ORGANIZATION ( #34, #235 ) ;
#48 = FACE_OUTER_BOUND ( 'NONE', #178, .T. ) ;
#49 = UNCERTAINTY_MEASURE_WITH_UNIT (LENGTH_MEASURE( 1.000000000000000082E-05 ), #177, 'distance_accuracy_value', 'NONE');
#50 = DATE_AND_TIME ( #191, #215 ) ;
#51 = DIRECTION ( 'NONE',  ( 0.0000000000000000000, -1.000000000000000000, 0.0000000000000000000 ) ) ;
#52 = PRODUCT_DEFINITION_FORMATION_WITH_SPECIFIED_SOURCE ( 'ANY', '', #216, .NOT_KNOWN. ) ;
#53 = CARTESIAN_POINT ( 'NONE',  ( 2.269462870248037628E-14, -7.788450197126433477E-16, 6.500000000000002665 ) ) ;
#54 = DIRECTION ( 'NONE',  ( 3.491481338843133355E-15, -1.198223107250220118E-16, 1.000000000000000000 ) ) ;
#55 = SHAPE_DEFINITION_REPRESENTATION ( #80, #256 ) ;
#56 = CYLINDRICAL_SURFACE ( 'NONE', #169, 1.999999999999998224 ) ;
#57 = CC_DESIGN_SECURITY_CLASSIFICATION ( #138, ( #52 ) ) ;
#58 = MANIFOLD_SOLID_BREP ( 'Corps-Déplacer/Copier1[1]', #159 ) ;
#59 = DIRECTION ( 'NONE',  ( -4.183573618734778004E-31, -1.000000000000000000, -1.198223107250220118E-16 ) ) ;
#60 = DIRECTION ( 'NONE',  ( -4.275831445896959482E-31, -1.000000000000000000, -1.224646799147353454E-16 ) ) ;
#61 = FACE_OUTER_BOUND ( 'NONE', #210, .T. ) ;
#62 = APPROVAL ( #181, 'UNSPECIFIED' ) ;
#63 = AXIS2_PLACEMENT_3D ( 'NONE', #33, #36, #149 ) ;
#64 =( NAMED_UNIT ( * ) PLANE_ANGLE_UNIT ( ) SI_UNIT ( $, .RADIAN. ) );
#65 = CARTESIAN_POINT ( 'NONE',  ( 8.728703347107828655E-15, -2.995557768125549062E-16, 2.499999999999998668 ) ) ;
#66 = ADVANCED_FACE ( 'NONE', ( #92, #237 ), #275, .T. ) ;
#67 = AXIS2_PLACEMENT_3D ( 'NONE', #195, #222, #104 ) ;
#68 = EDGE_LOOP ( 'NONE', ( #88 ) ) ;
#69 = AXIS2_PLACEMENT_3D ( 'NONE', #19, #212, #51 ) ;
#70 = DIRECTION ( 'NONE',  ( 0.0000000000000000000, 1.000000000000000000, 0.0000000000000000000 ) ) ;
#71 = APPROVAL_STATUS ( 'not_yet_approved' ) ;
#72 = EDGE_LOOP ( 'NONE', ( #208 ) ) ;
#73 = APPROVAL ( #71, 'UNSPECIFIED' ) ;
#74 = EDGE_LOOP ( 'NONE', ( #297 ) ) ;
#75 = DATE_AND_TIME ( #213, #13 ) ;
#76 = PLANE ( 'NONE',  #131 ) ;
#77 = DIRECTION ( 'NONE',  ( -3.491481338843133355E-15, 1.224646799147353454E-16, -1.000000000000000000 ) ) ;
#78 = EDGE_CURVE ( 'NONE', #154, #154, #164, .T. ) ;
#79 = FACE_OUTER_BOUND ( 'NONE', #300, .T. ) ;
#80 = PRODUCT_DEFINITION_SHAPE ( 'NONE', 'NONE',  #115 ) ;
#81 = FACE_OUTER_BOUND ( 'NONE', #118, .T. ) ;
#82 = AXIS2_PLACEMENT_3D ( 'NONE', #168, #125, #214 ) ;
#83 = VERTEX_POINT ( 'NONE', #271 ) ;
#84 = ORIENTED_EDGE ( 'NONE', *, *, #16, .T. ) ;
#85 = ADVANCED_FACE ( 'NONE', ( #189, #244 ), #260, .F. ) ;
#86 = ORIENTED_EDGE ( 'NONE', *, *, #278, .F. ) ;
#87 = DIRECTION ( 'NONE',  ( 0.0000000000000000000, -1.000000000000000000, 0.0000000000000000000 ) ) ;
#88 = ORIENTED_EDGE ( 'NONE', *, *, #11, .T. ) ;
#89 = APPROVAL_STATUS ( 'not_yet_approved' ) ;
#90 = CC_DESIGN_PERSON_AND_ORGANIZATION_ASSIGNMENT ( #158, #112, ( #216 ) ) ;
#91 = APPLICATION_CONTEXT ( 'configuration controlled 3d designs of mechanical parts and assemblies' ) ;
#92 = FACE_BOUND ( 'NONE', #281, .T. ) ;
#93 = PERSON_AND_ORGANIZATION ( #34, #235 ) ;
#94 = ORIENTED_EDGE ( 'NONE', *, *, #11, .F. ) ;
#95 = FACE_OUTER_BOUND ( 'NONE', #113, .T. ) ;
#96 = CIRCLE ( 'NONE', #43, 0.6999999999999999556 ) ;
#97 = FACE_OUTER_BOUND ( 'NONE', #272, .T. ) ;
#98 = ADVANCED_FACE ( 'NONE', ( #3 ), #38, .T. ) ;
#99 = AXIS2_PLACEMENT_3D ( 'NONE', #268, #266, #148 ) ;
#100 = DIRECTION ( 'NONE',  ( 3.491481338843133355E-15, -1.198223107250220118E-16, 1.000000000000000000 ) ) ;
#101 = CARTESIAN_POINT ( 'NONE',  ( -3.206893176761000815E-31, 1.124826709063586741E-32, -9.184907108292241390E-17 ) ) ;
#102 = LOCAL_TIME ( 15, 12, 37.00000000000000000, #167 ) ;
#103 = AXIS2_PLACEMENT_3D ( 'NONE', #65, #279, #161 ) ;
#104 = DIRECTION ( 'NONE',  ( 0.0000000000000000000, 1.000000000000000000, 0.0000000000000000000 ) ) ;
#105 = APPROVAL_ROLE ( '' ) ;
#106 = CARTESIAN_POINT ( 'NONE',  ( 1.222018468595096801E-13, -4.286263797015737285E-15, 35.00000000000000000 ) ) ;
#107 = VERTEX_POINT ( 'NONE', #127 ) ;
#108 = CONICAL_SURFACE ( 'NONE', #228, 1.600000000000000089, 0.7853981633974512766 ) ;
#109 = DIRECTION ( 'NONE',  ( 3.491481338843133355E-15, -1.198223107250220118E-16, 1.000000000000000000 ) ) ;
#110 = DIRECTION ( 'NONE',  ( 0.0000000000000000000, 1.000000000000000000, 0.0000000000000000000 ) ) ;
#111 = EDGE_LOOP ( 'NONE', ( #163 ) ) ;
#112 = PERSON_AND_ORGANIZATION_ROLE ( 'design_owner' ) ;
#113 = EDGE_LOOP ( 'NONE', ( #140 ) ) ;
#114 = PERSON_AND_ORGANIZATION_ROLE ( 'design_supplier' ) ;
#115 = PRODUCT_DEFINITION ( 'UNKNOWN', '', #52, #254 ) ;
#116 = ORIENTED_EDGE ( 'NONE', *, *, #123, .F. ) ;
#117 = PERSON_AND_ORGANIZATION ( #34, #235 ) ;
#118 = EDGE_LOOP ( 'NONE', ( #139 ) ) ;
#119 = APPROVAL_ROLE ( '' ) ;
#120 = FACE_OUTER_BOUND ( 'NONE', #184, .T. ) ;
#121 = APPROVAL_PERSON_ORGANIZATION ( #47, #7, #238 ) ;
#122 = DIRECTION ( 'NONE',  ( 0.0000000000000000000, -1.000000000000000000, 0.0000000000000000000 ) ) ;
#123 = EDGE_CURVE ( 'NONE', #231, #231, #35, .T. ) ;
#124 = CIRCLE ( 'NONE', #32, 1.600000000000000089 ) ;
#125 = DIRECTION ( 'NONE',  ( 3.491481338843133355E-15, -1.198223107250220118E-16, 1.000000000000000000 ) ) ;
#126 = CARTESIAN_POINT ( 'NONE',  ( 8.728703347107831810E-15, -5.421010862427531045E-16, 2.499999999999999556 ) ) ;
#127 = CARTESIAN_POINT ( 'NONE',  ( 2.490813917446758460E-14, -1.999999999999999556, 7.133974596215554520 ) ) ;
#128 = CARTESIAN_POINT ( 'NONE',  ( 8.728703347107828655E-15, -0.7000000000000007327, 2.499999999999998668 ) ) ;
#129 = VERTEX_POINT ( 'NONE', #296 ) ;
#130 = CARTESIAN_POINT ( 'NONE',  ( 0.0000000000000000000, 0.0000000000000000000, 0.0000000000000000000 ) ) ;
#131 = AXIS2_PLACEMENT_3D ( 'NONE', #126, #30, #60 ) ;
#132 = EDGE_LOOP ( 'NONE', ( #44 ) ) ;
#133 = ORIENTED_EDGE ( 'NONE', *, *, #264, .T. ) ;
#134 = APPROVAL_DATE_TIME ( #26, #7 ) ;
#135 = CYLINDRICAL_SURFACE ( 'NONE', #187, 1.500000000000000444 ) ;
#136 = APPROVAL_DATE_TIME ( #258, #73 ) ;
#137 = APPLICATION_CONTEXT ( 'configuration controlled 3d designs of mechanical parts and assemblies' ) ;
#138 = SECURITY_CLASSIFICATION ( '', '', #302 ) ;
#139 = ORIENTED_EDGE ( 'NONE', *, *, #37, .T. ) ;
#140 = ORIENTED_EDGE ( 'NONE', *, *, #16, .F. ) ;
#141 = ADVANCED_FACE ( 'NONE', ( #172 ), #76, .F. ) ;
#142 = CARTESIAN_POINT ( 'NONE',  ( 8.728703347107828655E-15, -2.995557768125549062E-16, 2.499999999999998668 ) ) ;
#143 = PERSON_AND_ORGANIZATION_ROLE ( 'creator' ) ;
#144 = APPROVAL_PERSON_ORGANIZATION ( #246, #62, #105 ) ;
#145 = DIRECTION ( 'NONE',  ( 4.275831445896959482E-31, 1.000000000000000000, 1.224646799147353454E-16 ) ) ;
#146 = CC_DESIGN_PERSON_AND_ORGANIZATION_ASSIGNMENT ( #263, #143, ( #115 ) ) ;
#147 = CONICAL_SURFACE ( 'NONE', #63, 1.500000000000000666, 0.3926990816987252497 ) ;
#148 = DIRECTION ( 'NONE',  ( 0.0000000000000000000, -1.000000000000000000, 0.0000000000000000000 ) ) ;
#149 = DIRECTION ( 'NONE',  ( 0.0000000000000000000, -1.000000000000000000, 0.0000000000000000000 ) ) ;
#150 = ADVANCED_FACE ( 'NONE', ( #95 ), #290, .F. ) ;
#151 = DATE_AND_TIME ( #42, #18 ) ;
#152 = AXIS2_PLACEMENT_3D ( 'NONE', #265, #285, #193 ) ;
#153 = DIRECTION ( 'NONE',  ( 1.000000000000000000, 0.0000000000000000000, 0.0000000000000000000 ) ) ;
#154 = VERTEX_POINT ( 'NONE', #176 ) ;
#155 = CARTESIAN_POINT ( 'NONE',  ( -2.928501533114344953E-31, 1.005017030323860754E-32, -8.387561750751541071E-17 ) ) ;
#156 = DIRECTION ( 'NONE',  ( -4.183573618734778879E-31, -1.000000000000000000, -1.198223107250220364E-16 ) ) ;
#157 = AXIS2_PLACEMENT_3D ( 'NONE', #142, #12, #240 ) ;
#158 = PERSON_AND_ORGANIZATION ( #34, #235 ) ;
#159 = CLOSED_SHELL ( 'NONE', ( #170, #293, #150, #66, #224, #45, #194, #85, #141 ) ) ;
#160 = EDGE_LOOP ( 'NONE', ( #255 ) ) ;
#161 = DIRECTION ( 'NONE',  ( 0.0000000000000000000, -1.000000000000000000, 0.0000000000000000000 ) ) ;
#162 = CALENDAR_DATE ( 2021, 8, 11 ) ;
#163 = ORIENTED_EDGE ( 'NONE', *, *, #123, .T. ) ;
#164 = CIRCLE ( 'NONE', #188, 1.633974596215562958 ) ;
#165 = DIRECTION ( 'NONE',  ( 3.491481338843133355E-15, -1.198223107250220118E-16, 1.000000000000000000 ) ) ;
#166 = DIRECTION ( 'NONE',  ( -3.491481338843133355E-15, 1.224646799147353454E-16, -1.000000000000000000 ) ) ;
#167 = COORDINATED_UNIVERSAL_TIME_OFFSET ( 1, 0, .AHEAD. ) ;
#168 = CARTESIAN_POINT ( 'NONE',  ( 8.728703347107828655E-15, -2.168404344971008868E-16, 2.499999999999998668 ) ) ;
#169 = AXIS2_PLACEMENT_3D ( 'NONE', #267, #77, #239 ) ;
#170 = ADVANCED_FACE ( 'NONE', ( #61, #81 ), #56, .T. ) ;
#171 = AXIS2_PLACEMENT_3D ( 'NONE', #242, #190, #262 ) ;
#172 = FACE_OUTER_BOUND ( 'NONE', #24, .T. ) ;
#173 = FACE_OUTER_BOUND ( 'NONE', #1, .T. ) ;
#174 = CC_DESIGN_PERSON_AND_ORGANIZATION_ASSIGNMENT ( #183, #280, ( #138 ) ) ;
#175 =( GEOMETRIC_REPRESENTATION_CONTEXT ( 3 ) GLOBAL_UNCERTAINTY_ASSIGNED_CONTEXT ( ( #49 ) ) GLOBAL_UNIT_ASSIGNED_CONTEXT ( ( #177, #64, #273 ) ) REPRESENTATION_CONTEXT ( 'NONE', 'WORKASPACE' ) );
#176 = CARTESIAN_POINT ( 'NONE',  ( 2.269462870248037628E-14, -1.633974596215563846, 6.500000000000002665 ) ) ;
#177 =( LENGTH_UNIT ( ) NAMED_UNIT ( * ) SI_UNIT ( .MILLI., .METRE. ) );
#178 = EDGE_LOOP ( 'NONE', ( #116 ) ) ;
#179 = FACE_OUTER_BOUND ( 'NONE', #230, .T. ) ;
#180 = APPROVAL_PERSON_ORGANIZATION ( #117, #73, #119 ) ;
#181 = APPROVAL_STATUS ( 'not_yet_approved' ) ;
#182 = EDGE_LOOP ( 'NONE', ( #84 ) ) ;
#183 = PERSON_AND_ORGANIZATION ( #34, #235 ) ;
#184 = EDGE_LOOP ( 'NONE', ( #86 ) ) ;
#185 = COORDINATED_UNIVERSAL_TIME_OFFSET ( 1, 0, .AHEAD. ) ;
#186 = CARTESIAN_POINT ( 'NONE',  ( 1.222018468595096801E-13, -4.286263797015737285E-15, 35.00000000000000000 ) ) ;
#187 = AXIS2_PLACEMENT_3D ( 'NONE', #282, #274, #156 ) ;
#188 = AXIS2_PLACEMENT_3D ( 'NONE', #53, #109, #204 ) ;
#189 = FACE_OUTER_BOUND ( 'NONE', #253, .T. ) ;
#190 = DIRECTION ( 'NONE',  ( 3.491481338843133355E-15, -1.198223107250220118E-16, 1.000000000000000000 ) ) ;
#191 = CALENDAR_DATE ( 2021, 8, 11 ) ;
#192 = AXIS2_PLACEMENT_3D ( 'NONE', #198, #294, #87 ) ;
#193 = DIRECTION ( 'NONE',  ( -4.275831445896959482E-31, -1.000000000000000000, -1.224646799147353454E-16 ) ) ;
#194 = ADVANCED_FACE ( 'NONE', ( #29, #120 ), #147, .T. ) ;
#195 = CARTESIAN_POINT ( 'NONE',  ( 1.208052543239724267E-13, -4.237277925049843857E-15, 34.60000000000000853 ) ) ;
#196 = AXIS2_PLACEMENT_3D ( 'NONE', #243, #166, #145 ) ;
#197 = CIRCLE ( 'NONE', #69, 1.999999999999998668 ) ;
#198 = CARTESIAN_POINT ( 'NONE',  ( 1.616654744668513118E-14, -5.548112344055544675E-16, 4.630283217278128305 ) ) ;
#199 = VERTEX_POINT ( 'NONE', #277 ) ;
#200 = CC_DESIGN_PERSON_AND_ORGANIZATION_ASSIGNMENT ( #233, #114, ( #52 ) ) ;
#201 = VERTEX_POINT ( 'NONE', #295 ) ;
#202 = TOROIDAL_SURFACE ( 'NONE', #217, 2.500000000000000888, 1.000000000000000222 ) ;
#203 = VERTEX_POINT ( 'NONE', #226 ) ;
#204 = DIRECTION ( 'NONE',  ( 0.0000000000000000000, -1.000000000000000000, 0.0000000000000000000 ) ) ;
#205 = DIRECTION ( 'NONE',  ( -3.491481338843133355E-15, 1.224646799147353454E-16, -1.000000000000000000 ) ) ;
#206 = ADVANCED_FACE ( 'NONE', ( #220, #173 ), #221, .T. ) ;
#207 = VERTEX_POINT ( 'NONE', #14 ) ;
#208 = ORIENTED_EDGE ( 'NONE', *, *, #264, .F. ) ;
#209 = CALENDAR_DATE ( 2021, 8, 11 ) ;
#210 = EDGE_LOOP ( 'NONE', ( #133 ) ) ;
#211 = PRODUCT_RELATED_PRODUCT_CATEGORY ( 'detail', '', ( #216 ) ) ;
#212 = DIRECTION ( 'NONE',  ( 3.491481338843133355E-15, -1.198223107250220118E-16, 1.000000000000000000 ) ) ;
#213 = CALENDAR_DATE ( 2021, 8, 11 ) ;
#214 = DIRECTION ( 'NONE',  ( -4.281926560969072938E-31, -1.000000000000000000, -1.198223107250220118E-16 ) ) ;
#215 = LOCAL_TIME ( 15, 12, 37.00000000000000000, #185 ) ;
#216 = PRODUCT ( '987583', '987583', '', ( #247 ) ) ;
#217 = AXIS2_PLACEMENT_3D ( 'NONE', #9, #54, #59 ) ;
#218 = DIRECTION ( 'NONE',  ( 3.491481338843133355E-15, -1.224646799147353454E-16, 1.000000000000000000 ) ) ;
#219 = CC_DESIGN_APPROVAL ( #73, ( #138 ) ) ;
#220 = FACE_OUTER_BOUND ( 'NONE', #74, .T. ) ;
#221 = CYLINDRICAL_SURFACE ( 'NONE', #171, 0.7000000000000001776 ) ;
#222 = DIRECTION ( 'NONE',  ( -3.491481338843133355E-15, 1.224646799147353454E-16, -1.000000000000000000 ) ) ;
#223 = CIRCLE ( 'NONE', #192, 1.500000000000000666 ) ;
#224 = ADVANCED_FACE ( 'NONE', ( #10, #97 ), #202, .F. ) ;
#225 = APPLICATION_PROTOCOL_DEFINITION ( 'international standard', 'config_control_design', 1994, #91 ) ;
#226 = CARTESIAN_POINT ( 'NONE',  ( 1.006483540989498103E-14, -0.7761204674887142163, 2.882683432365089615 ) ) ;
#227 = DIRECTION ( 'NONE',  ( 3.491481338843133355E-15, -1.198223107250220118E-16, 1.000000000000000000 ) ) ;
#228 = AXIS2_PLACEMENT_3D ( 'NONE', #106, #205, #110 ) ;
#229 = EDGE_CURVE ( 'NONE', #207, #207, #250, .T. ) ;
#230 = EDGE_LOOP ( 'NONE', ( #259 ) ) ;
#231 = VERTEX_POINT ( 'NONE', #15 ) ;
#232 = ORIENTED_EDGE ( 'NONE', *, *, #286, .F. ) ;
#233 = PERSON_AND_ORGANIZATION ( #34, #235 ) ;
#234 = ORIENTED_EDGE ( 'NONE', *, *, #78, .T. ) ;
#235 = ORGANIZATION ( 'UNSPECIFIED', 'UNSPECIFIED', '' ) ;
#236 = EDGE_CURVE ( 'NONE', #203, #203, #241, .T. ) ;
#237 = FACE_OUTER_BOUND ( 'NONE', #46, .T. ) ;
#238 = APPROVAL_ROLE ( '' ) ;
#239 = DIRECTION ( 'NONE',  ( 4.275831445896958607E-31, 1.000000000000000000, 1.224646799147353454E-16 ) ) ;
#240 = DIRECTION ( 'NONE',  ( 0.0000000000000000000, -1.000000000000000000, 0.0000000000000000000 ) ) ;
#241 = CIRCLE ( 'NONE', #31, 0.7761204674887138832 ) ;
#242 = CARTESIAN_POINT ( 'NONE',  ( 0.0000000000000000000, 0.0000000000000000000, 0.0000000000000000000 ) ) ;
#243 = CARTESIAN_POINT ( 'NONE',  ( 1.222018468595096801E-13, 1.199807826129480202E-32, 35.00000000000000000 ) ) ;
#244 = FACE_OUTER_BOUND ( 'NONE', #160, .T. ) ;
#245 = APPROVAL_DATE_TIME ( #151, #62 ) ;
#246 = PERSON_AND_ORGANIZATION ( #34, #235 ) ;
#247 = MECHANICAL_CONTEXT ( 'NONE', #91, 'mechanical' ) ;
#248 = ADVANCED_FACE ( 'NONE', ( #79 ), #287, .F. ) ;
#249 = CARTESIAN_POINT ( 'NONE',  ( 2.490813917446758460E-14, -8.548093207721536245E-16, 7.133974596215554520 ) ) ;
#250 = CIRCLE ( 'NONE', #157, 0.7000000000000003997 ) ;
#251 = DIRECTION ( 'NONE',  ( -4.183573618734777128E-31, -1.000000000000000000, -1.198223107250220118E-16 ) ) ;
#252 = MANIFOLD_SOLID_BREP ( 'Corps-Déplacer/Copier1[2]', #292 ) ;
#253 = EDGE_LOOP ( 'NONE', ( #20 ) ) ;
#254 = DESIGN_CONTEXT ( 'detailed design', #137, 'design' ) ;
#255 = ORIENTED_EDGE ( 'NONE', *, *, #236, .F. ) ;
#256 = ADVANCED_BREP_SHAPE_REPRESENTATION ( '987583', ( #58, #252, #4 ), #175 ) ;
#257 = CC_DESIGN_PERSON_AND_ORGANIZATION_ASSIGNMENT ( #93, #6, ( #52 ) ) ;
#258 = DATE_AND_TIME ( #162, #301 ) ;
#259 = ORIENTED_EDGE ( 'NONE', *, *, #278, .T. ) ;
#260 = TOROIDAL_SURFACE ( 'NONE', #82, 1.700000000000000400, 1.000000000000000000 ) ;
#261 = DIRECTION ( 'NONE',  ( 0.0000000000000000000, -1.000000000000000000, 0.0000000000000000000 ) ) ;
#262 = DIRECTION ( 'NONE',  ( -4.183573618734778879E-31, -1.000000000000000000, -1.198223107250220118E-16 ) ) ;
#263 = PERSON_AND_ORGANIZATION ( #34, #235 ) ;
#264 = EDGE_CURVE ( 'NONE', #199, #199, #8, .T. ) ;
#265 = CARTESIAN_POINT ( 'NONE',  ( 8.728703347107831810E-15, -5.421010862427531045E-16, 2.499999999999999556 ) ) ;
#266 = DIRECTION ( 'NONE',  ( 3.491481338843133355E-15, -1.198223107250220118E-16, 1.000000000000000000 ) ) ;
#267 = CARTESIAN_POINT ( 'NONE',  ( 0.0000000000000000000, 0.0000000000000000000, 0.0000000000000000000 ) ) ;
#268 = CARTESIAN_POINT ( 'NONE',  ( 2.094888803305880013E-14, -7.189338643501320706E-16, 6.000000000000000000 ) ) ;
#269 = VERTEX_POINT ( 'NONE', #128 ) ;
#270 = CC_DESIGN_APPROVAL ( #7, ( #52 ) ) ;
#271 = CARTESIAN_POINT ( 'NONE',  ( -5.857003066228689030E-31, -0.6999999999999999556, -1.677512350150308214E-16 ) ) ;
#272 = EDGE_LOOP ( 'NONE', ( #303 ) ) ;
#273 =( NAMED_UNIT ( * ) SI_UNIT ( $, .STERADIAN. ) SOLID_ANGLE_UNIT ( ) );
#274 = DIRECTION ( 'NONE',  ( 3.491481338843133355E-15, -1.198223107250220118E-16, 1.000000000000000000 ) ) ;
#275 = CONICAL_SURFACE ( 'NONE', #291, 1.999999999999998668, 0.5235987755983017022 ) ;
#276 = CIRCLE ( 'NONE', #103, 0.7000000000000003997 ) ;
#277 = CARTESIAN_POINT ( 'NONE',  ( 1.208052543239724267E-13, 1.999999999999995781, 34.60000000000000853 ) ) ;
#278 = EDGE_CURVE ( 'NONE', #129, #129, #223, .T. ) ;
#279 = DIRECTION ( 'NONE',  ( 3.491481338843133355E-15, -1.198223107250220118E-16, 1.000000000000000000 ) ) ;
#280 = PERSON_AND_ORGANIZATION_ROLE ( 'classification_officer' ) ;
#281 = EDGE_LOOP ( 'NONE', ( #234 ) ) ;
#282 = CARTESIAN_POINT ( 'NONE',  ( 0.0000000000000000000, 0.0000000000000000000, 0.0000000000000000000 ) ) ;
#283 = CC_DESIGN_APPROVAL ( #62, ( #115 ) ) ;
#284 = COORDINATED_UNIVERSAL_TIME_OFFSET ( 1, 0, .AHEAD. ) ;
#285 = DIRECTION ( 'NONE',  ( 3.491481338843133355E-15, -1.224646799147353454E-16, 1.000000000000000000 ) ) ;
#286 = EDGE_CURVE ( 'NONE', #83, #83, #96, .T. ) ;
#287 = PLANE ( 'NONE',  #25 ) ;
#288 = CC_DESIGN_DATE_AND_TIME_ASSIGNMENT ( #75, #28, ( #138 ) ) ;
#289 = CARTESIAN_POINT ( 'NONE',  ( 1.006483540989498103E-14, -3.454097899547227508E-16, 2.882683432365089615 ) ) ;
#290 = PLANE ( 'NONE',  #196 ) ;
#291 = AXIS2_PLACEMENT_3D ( 'NONE', #249, #165, #261 ) ;
#292 = CLOSED_SHELL ( 'NONE', ( #98, #206, #248 ) ) ;
#293 = ADVANCED_FACE ( 'NONE', ( #17, #39 ), #108, .T. ) ;
#294 = DIRECTION ( 'NONE',  ( 3.491481338843133355E-15, -1.198223107250220118E-16, 1.000000000000000000 ) ) ;
#295 = CARTESIAN_POINT ( 'NONE',  ( 1.222018468595096801E-13, 1.599999999999995648, 35.00000000000000000 ) ) ;
#296 = CARTESIAN_POINT ( 'NONE',  ( 1.616654744668513118E-14, -1.500000000000001332, 4.630283217278128305 ) ) ;
#297 = ORIENTED_EDGE ( 'NONE', *, *, #286, .T. ) ;
#298 = DIRECTION ( 'NONE',  ( -3.491481338843133355E-15, 1.224646799147353454E-16, -1.000000000000000000 ) ) ;
#299 = APPLICATION_PROTOCOL_DEFINITION ( 'international standard', 'config_control_design', 1994, #137 ) ;
#300 = EDGE_LOOP ( 'NONE', ( #232 ) ) ;
#301 = LOCAL_TIME ( 15, 12, 37.00000000000000000, #284 ) ;
#302 = SECURITY_CLASSIFICATION_LEVEL ( 'unclassified' ) ;
#303 = ORIENTED_EDGE ( 'NONE', *, *, #78, .F. ) ;
ENDSEC;
END-ISO-10303-21;
