ISO-10303-21;
HEADER;
FILE_DESCRIPTION (( 'STEP AP203' ),
    '1' );
FILE_NAME ('987582.step',
    '2021-11-08T14:12:36',
    ( '' ),
    ( '' ),
    'SwSTEP 2.0',
    'SolidWorks 2019',
    '' );
FILE_SCHEMA (( 'CONFIG_CONTROL_DESIGN' ));
ENDSEC;

DATA;
#1 = ADVANCED_FACE ( 'NONE', ( #57 ), #293, .F. ) ;
#2 = DATE_TIME_ROLE ( 'classification_date' ) ;
#3 = AXIS2_PLACEMENT_3D ( 'NONE', #11, #106, #181 ) ;
#4 = CARTESIAN_POINT ( 'NONE',  ( 1.780655482809997696E-14, -4.336808689942017736E-16, 5.099999999999999645 ) ) ;
#5 = PERSON ( 'UNSPECIFIED', 'UNSPECIFIED', 'UNSPECIFIED', ('UNSPECIFIED'), ('UNSPECIFIED'), ('UNSPECIFIED') ) ;
#6 = APPROVAL_ROLE ( '' ) ;
#7 = EDGE_LOOP ( 'NONE', ( #235 ) ) ;
#8 = DIRECTION ( 'NONE',  ( 1.000000000000000000, 0.0000000000000000000, 0.0000000000000000000 ) ) ;
#9 = DIRECTION ( 'NONE',  ( -3.491481338843133355E-15, 1.224646799147353454E-16, -1.000000000000000000 ) ) ;
#10 = PERSON_AND_ORGANIZATION_ROLE ( 'creator' ) ;
#11 = CARTESIAN_POINT ( 'NONE',  ( 8.728703347107831810E-15, -5.421010862427531045E-16, 2.499999999999999556 ) ) ;
#12 = CIRCLE ( 'NONE', #192, 1.999999999999998668 ) ;
#13 = PRODUCT_DEFINITION_SHAPE ( 'NONE', 'NONE',  #176 ) ;
#14 = ORIENTED_EDGE ( 'NONE', *, *, #135, .F. ) ;
#15 = CARTESIAN_POINT ( 'NONE',  ( 8.728703347107828655E-15, -2.995557768125549062E-16, 2.499999999999998668 ) ) ;
#16 = DIRECTION ( 'NONE',  ( 3.491481338843133355E-15, -1.198223107250220118E-16, 1.000000000000000000 ) ) ;
#17 = LOCAL_TIME ( 15, 12, 36.00000000000000000, #18 ) ;
#18 = COORDINATED_UNIVERSAL_TIME_OFFSET ( 1, 0, .AHEAD. ) ;
#19 = CARTESIAN_POINT ( 'NONE',  ( 1.222018468595096801E-13, 1.599999999999995648, 35.00000000000000000 ) ) ;
#20 = AXIS2_PLACEMENT_3D ( 'NONE', #280, #184, #282 ) ;
#21 = CC_DESIGN_PERSON_AND_ORGANIZATION_ASSIGNMENT ( #207, #152, ( #217 ) ) ;
#22 = ADVANCED_FACE ( 'NONE', ( #78 ), #53, .F. ) ;
#23 = CARTESIAN_POINT ( 'NONE',  ( 1.208052543239724267E-13, 1.999999999999995781, 34.60000000000000853 ) ) ;
#24 = CIRCLE ( 'NONE', #20, 1.000000000000000444 ) ;
#25 = VERTEX_POINT ( 'NONE', #190 ) ;
#26 = ADVANCED_FACE ( 'NONE', ( #28 ), #229, .T. ) ;
#27 = ORIENTED_EDGE ( 'NONE', *, *, #114, .T. ) ;
#28 = FACE_OUTER_BOUND ( 'NONE', #272, .T. ) ;
#29 = CONICAL_SURFACE ( 'NONE', #228, 1.600000000000000089, 0.7853981633974512766 ) ;
#30 = ORIENTED_EDGE ( 'NONE', *, *, #146, .T. ) ;
#31 = EDGE_LOOP ( 'NONE', ( #74 ) ) ;
#32 = PERSON_AND_ORGANIZATION ( #5, #178 ) ;
#33 = ORIENTED_EDGE ( 'NONE', *, *, #58, .T. ) ;
#34 = AXIS2_PLACEMENT_3D ( 'NONE', #204, #200, #8 ) ;
#35 = AXIS2_PLACEMENT_3D ( 'NONE', #107, #177, #294 ) ;
#36 = EDGE_LOOP ( 'NONE', ( #208 ) ) ;
#37 = APPLICATION_PROTOCOL_DEFINITION ( 'international standard', 'config_control_design', 1994, #87 ) ;
#38 = DIRECTION ( 'NONE',  ( 0.0000000000000000000, 1.000000000000000000, 0.0000000000000000000 ) ) ;
#39 = DIRECTION ( 'NONE',  ( -3.491481338843133355E-15, 1.224646799147353454E-16, -1.000000000000000000 ) ) ;
#40 = CARTESIAN_POINT ( 'NONE',  ( -3.206893176761000815E-31, 1.124826709063586741E-32, -9.184907108292241390E-17 ) ) ;
#41 = AXIS2_PLACEMENT_3D ( 'NONE', #216, #160, #188 ) ;
#42 = CARTESIAN_POINT ( 'NONE',  ( 1.222018468595096801E-13, -4.286263797015737285E-15, 35.00000000000000000 ) ) ;
#43 = CALENDAR_DATE ( 2021, 8, 11 ) ;
#44 = DIRECTION ( 'NONE',  ( 3.491481338843133355E-15, -1.198223107250220118E-16, 1.000000000000000000 ) ) ;
#45 = ORIENTED_EDGE ( 'NONE', *, *, #233, .F. ) ;
#46 = MANIFOLD_SOLID_BREP ( 'Corps-Déplacer/Copier1[2]', #76 ) ;
#47 = APPROVAL_STATUS ( 'not_yet_approved' ) ;
#48 = EDGE_LOOP ( 'NONE', ( #231 ) ) ;
#49 = EDGE_CURVE ( 'NONE', #167, #167, #12, .T. ) ;
#50 = AXIS2_PLACEMENT_3D ( 'NONE', #81, #175, #297 ) ;
#51 = CIRCLE ( 'NONE', #295, 0.5000000000000003331 ) ;
#52 = EDGE_LOOP ( 'NONE', ( #140 ) ) ;
#53 = PLANE ( 'NONE',  #270 ) ;
#54 = CONICAL_SURFACE ( 'NONE', #122, 1.000000000000000444, 0.3926990816987256383 ) ;
#55 = VERTEX_POINT ( 'NONE', #172 ) ;
#56 = CARTESIAN_POINT ( 'NONE',  ( 8.728703347107828655E-15, -2.995557768125549062E-16, 2.499999999999998668 ) ) ;
#57 = FACE_OUTER_BOUND ( 'NONE', #7, .T. ) ;
#58 = EDGE_CURVE ( 'NONE', #25, #25, #51, .T. ) ;
#59 = ORIENTED_EDGE ( 'NONE', *, *, #233, .T. ) ;
#60 = APPROVAL_PERSON_ORGANIZATION ( #265, #88, #6 ) ;
#61 = CARTESIAN_POINT ( 'NONE',  ( 1.222018468595096801E-13, -4.286263797015737285E-15, 35.00000000000000000 ) ) ;
#62 = CYLINDRICAL_SURFACE ( 'NONE', #298, 1.999999999999998224 ) ;
#63 = FACE_BOUND ( 'NONE', #276, .T. ) ;
#64 = CARTESIAN_POINT ( 'NONE',  ( 2.478951750578613323E-14, -8.507384061476523837E-16, 7.099999999999967670 ) ) ;
#65 = AXIS2_PLACEMENT_3D ( 'NONE', #90, #92, #258 ) ;
#66 = VERTEX_POINT ( 'NONE', #138 ) ;
#67 = FACE_OUTER_BOUND ( 'NONE', #31, .T. ) ;
#68 = FACE_OUTER_BOUND ( 'NONE', #249, .T. ) ;
#69 = ORIENTED_EDGE ( 'NONE', *, *, #79, .F. ) ;
#70 = CC_DESIGN_APPROVAL ( #88, ( #154 ) ) ;
#71 = DIRECTION ( 'NONE',  ( -4.183573618734778004E-31, -1.000000000000000000, -1.198223107250220118E-16 ) ) ;
#72 = EDGE_CURVE ( 'NONE', #66, #66, #133, .T. ) ;
#73 = CARTESIAN_POINT ( 'NONE',  ( 0.0000000000000000000, 0.0000000000000000000, 0.0000000000000000000 ) ) ;
#74 = ORIENTED_EDGE ( 'NONE', *, *, #79, .T. ) ;
#75 = CIRCLE ( 'NONE', #289, 0.5000000000000000000 ) ;
#76 = CLOSED_SHELL ( 'NONE', ( #26, #96, #252 ) ) ;
#77 = CC_DESIGN_PERSON_AND_ORGANIZATION_ASSIGNMENT ( #301, #284, ( #217 ) ) ;
#78 = FACE_OUTER_BOUND ( 'NONE', #103, .T. ) ;
#79 = EDGE_CURVE ( 'NONE', #267, #267, #206, .T. ) ;
#80 = EDGE_LOOP ( 'NONE', ( #45 ) ) ;
#81 = CARTESIAN_POINT ( 'NONE',  ( 1.955229549752156888E-14, -6.710049400601240745E-16, 5.600000000000006750 ) ) ;
#82 = AXIS2_PLACEMENT_3D ( 'NONE', #4, #263, #283 ) ;
#83 = EDGE_CURVE ( 'NONE', #170, #170, #86, .T. ) ;
#84 = ORIENTED_EDGE ( 'NONE', *, *, #83, .T. ) ;
#85 = DIRECTION ( 'NONE',  ( 3.491481338843133355E-15, -1.198223107250220118E-16, 1.000000000000000000 ) ) ;
#86 = CIRCLE ( 'NONE', #116, 0.5000000000000003331 ) ;
#87 = APPLICATION_CONTEXT ( 'configuration controlled 3d designs of mechanical parts and assemblies' ) ;
#88 = APPROVAL ( #47, 'UNSPECIFIED' ) ;
#89 = PERSON_AND_ORGANIZATION ( #5, #178 ) ;
#90 = CARTESIAN_POINT ( 'NONE',  ( 0.0000000000000000000, 0.0000000000000000000, 0.0000000000000000000 ) ) ;
#91 = FACE_OUTER_BOUND ( 'NONE', #257, .T. ) ;
#92 = DIRECTION ( 'NONE',  ( 3.491481338843133355E-15, -1.198223107250220118E-16, 1.000000000000000000 ) ) ;
#93 = CARTESIAN_POINT ( 'NONE',  ( 1.363779296638283662E-14, -4.680282401173852202E-16, 3.906019148566201249 ) ) ;
#94 = TOROIDAL_SURFACE ( 'NONE', #247, 1.500000000000000222, 1.000000000000000000 ) ;
#95 = CLOSED_SHELL ( 'NONE', ( #262, #130, #22, #173, #169, #281, #224, #156, #1 ) ) ;
#96 = ADVANCED_FACE ( 'NONE', ( #111, #241 ), #161, .T. ) ;
#97 = CARTESIAN_POINT ( 'NONE',  ( -4.183573618734778004E-31, -0.5000000000000000000, -1.198223107250220118E-16 ) ) ;
#98 = FACE_BOUND ( 'NONE', #52, .T. ) ;
#99 = DIRECTION ( 'NONE',  ( 0.0000000000000000000, -1.000000000000000000, 0.0000000000000000000 ) ) ;
#100 = AXIS2_PLACEMENT_3D ( 'NONE', #42, #117, #185 ) ;
#101 = CC_DESIGN_PERSON_AND_ORGANIZATION_ASSIGNMENT ( #89, #10, ( #176 ) ) ;
#102 = TOROIDAL_SURFACE ( 'NONE', #82, 2.000000000000000444, 1.000000000000000222 ) ;
#103 = EDGE_LOOP ( 'NONE', ( #14 ) ) ;
#104 = LOCAL_TIME ( 15, 12, 36.00000000000000000, #129 ) ;
#105 = APPROVAL_DATE_TIME ( #214, #194 ) ;
#106 = DIRECTION ( 'NONE',  ( 3.491481338843133355E-15, -1.224646799147353454E-16, 1.000000000000000000 ) ) ;
#107 = CARTESIAN_POINT ( 'NONE',  ( 8.728703347107831810E-15, -5.421010862427531045E-16, 2.499999999999999556 ) ) ;
#108 = PERSON_AND_ORGANIZATION ( #5, #178 ) ;
#109 = FACE_OUTER_BOUND ( 'NONE', #223, .T. ) ;
#110 = CALENDAR_DATE ( 2021, 8, 11 ) ;
#111 = FACE_OUTER_BOUND ( 'NONE', #127, .T. ) ;
#112 = FACE_OUTER_BOUND ( 'NONE', #124, .T. ) ;
#113 = DIRECTION ( 'NONE',  ( 3.491481338843133355E-15, -1.198223107250220118E-16, 1.000000000000000000 ) ) ;
#114 = EDGE_CURVE ( 'NONE', #143, #143, #24, .T. ) ;
#115 = FACE_OUTER_BOUND ( 'NONE', #36, .T. ) ;
#116 = AXIS2_PLACEMENT_3D ( 'NONE', #56, #151, #302 ) ;
#117 = DIRECTION ( 'NONE',  ( -3.491481338843133355E-15, 1.224646799147353454E-16, -1.000000000000000000 ) ) ;
#118 = PERSON_AND_ORGANIZATION_ROLE ( 'classification_officer' ) ;
#119 = DIRECTION ( 'NONE',  ( 3.491481338843133355E-15, -1.198223107250220118E-16, 1.000000000000000000 ) ) ;
#120 = APPROVAL_PERSON_ORGANIZATION ( #230, #202, #211 ) ;
#121 = ORIENTED_EDGE ( 'NONE', *, *, #186, .T. ) ;
#122 = AXIS2_PLACEMENT_3D ( 'NONE', #93, #113, #193 ) ;
#123 = EDGE_LOOP ( 'NONE', ( #171 ) ) ;
#124 = EDGE_LOOP ( 'NONE', ( #33 ) ) ;
#125 = PERSON_AND_ORGANIZATION_ROLE ( 'design_owner' ) ;
#126 = CARTESIAN_POINT ( 'NONE',  ( 1.208052543239724267E-13, -4.237277925049843857E-15, 34.60000000000000853 ) ) ;
#127 = EDGE_LOOP ( 'NONE', ( #30 ) ) ;
#128 = CC_DESIGN_DATE_AND_TIME_ASSIGNMENT ( #275, #183, ( #176 ) ) ;
#129 = COORDINATED_UNIVERSAL_TIME_OFFSET ( 1, 0, .AHEAD. ) ;
#130 = ADVANCED_FACE ( 'NONE', ( #187, #63 ), #29, .T. ) ;
#131 = DIRECTION ( 'NONE',  ( 3.491481338843133355E-15, -1.198223107250220118E-16, 1.000000000000000000 ) ) ;
#132 = APPROVAL_STATUS ( 'not_yet_approved' ) ;
#133 = CIRCLE ( 'NONE', #50, 1.133974596215565622 ) ;
#134 = CARTESIAN_POINT ( 'NONE',  ( -2.091786809367389002E-31, 7.178693073741862332E-33, -5.991115536251100589E-17 ) ) ;
#135 = EDGE_CURVE ( 'NONE', #246, #246, #292, .T. ) ;
#136 = SHAPE_DEFINITION_REPRESENTATION ( #13, #255 ) ;
#137 = UNCERTAINTY_MEASURE_WITH_UNIT (LENGTH_MEASURE( 1.000000000000000082E-05 ), #147, 'distance_accuracy_value', 'NONE');
#138 = CARTESIAN_POINT ( 'NONE',  ( 1.955229549752156888E-14, -1.133974596215566288, 5.600000000000006750 ) ) ;
#139 = APPROVAL_PERSON_ORGANIZATION ( #159, #194, #240 ) ;
#140 = ORIENTED_EDGE ( 'NONE', *, *, #72, .T. ) ;
#141 = CC_DESIGN_DATE_AND_TIME_ASSIGNMENT ( #243, #2, ( #154 ) ) ;
#142 = COORDINATED_UNIVERSAL_TIME_OFFSET ( 1, 0, .AHEAD. ) ;
#143 = VERTEX_POINT ( 'NONE', #164 ) ;
#144 = CARTESIAN_POINT ( 'NONE',  ( 2.478951750578613323E-14, -1.999999999999999556, 7.099999999999967670 ) ) ;
#145 = CC_DESIGN_APPROVAL ( #202, ( #176 ) ) ;
#146 = EDGE_CURVE ( 'NONE', #245, #245, #75, .T. ) ;
#147 =( LENGTH_UNIT ( ) NAMED_UNIT ( * ) SI_UNIT ( .MILLI., .METRE. ) );
#148 =( NAMED_UNIT ( * ) SI_UNIT ( $, .STERADIAN. ) SOLID_ANGLE_UNIT ( ) );
#149 = ORIENTED_EDGE ( 'NONE', *, *, #186, .F. ) ;
#150 = AXIS2_PLACEMENT_3D ( 'NONE', #215, #261, #218 ) ;
#151 = DIRECTION ( 'NONE',  ( 3.491481338843133355E-15, -1.198223107250220118E-16, 1.000000000000000000 ) ) ;
#152 = PERSON_AND_ORGANIZATION_ROLE ( 'design_supplier' ) ;
#153 = DIRECTION ( 'NONE',  ( 0.0000000000000000000, -1.000000000000000000, 0.0000000000000000000 ) ) ;
#154 = SECURITY_CLASSIFICATION ( '', '', #253 ) ;
#155 = MANIFOLD_SOLID_BREP ( 'Corps-Déplacer/Copier1[1]', #95 ) ;
#156 = ADVANCED_FACE ( 'NONE', ( #112, #242 ), #94, .F. ) ;
#157 = DIRECTION ( 'NONE',  ( -3.491481338843133355E-15, 1.224646799147353454E-16, -1.000000000000000000 ) ) ;
#158 = FACE_OUTER_BOUND ( 'NONE', #123, .T. ) ;
#159 = PERSON_AND_ORGANIZATION ( #5, #178 ) ;
#160 = DIRECTION ( 'NONE',  ( 3.491481338843133355E-15, -1.198223107250220118E-16, 1.000000000000000000 ) ) ;
#161 = CYLINDRICAL_SURFACE ( 'NONE', #65, 0.5000000000000002220 ) ;
#162 = AXIS2_PLACEMENT_3D ( 'NONE', #73, #119, #71 ) ;
#163 = APPROVAL_DATE_TIME ( #198, #88 ) ;
#164 = CARTESIAN_POINT ( 'NONE',  ( 1.363779296638283662E-14, -1.000000000000000888, 3.906019148566201249 ) ) ;
#165 = FACE_OUTER_BOUND ( 'NONE', #271, .T. ) ;
#166 = FACE_OUTER_BOUND ( 'NONE', #296, .T. ) ;
#167 = VERTEX_POINT ( 'NONE', #144 ) ;
#168 =( GEOMETRIC_REPRESENTATION_CONTEXT ( 3 ) GLOBAL_UNCERTAINTY_ASSIGNED_CONTEXT ( ( #137 ) ) GLOBAL_UNIT_ASSIGNED_CONTEXT ( ( #147, #248, #148 ) ) REPRESENTATION_CONTEXT ( 'NONE', 'WORKASPACE' ) );
#169 = ADVANCED_FACE ( 'NONE', ( #68, #158 ), #102, .F. ) ;
#170 = VERTEX_POINT ( 'NONE', #266 ) ;
#171 = ORIENTED_EDGE ( 'NONE', *, *, #72, .F. ) ;
#172 = CARTESIAN_POINT ( 'NONE',  ( 1.780655482809997696E-14, -1.000000000000001110, 5.099999999999999645 ) ) ;
#173 = ADVANCED_FACE ( 'NONE', ( #98, #115 ), #269, .T. ) ;
#174 = MECHANICAL_CONTEXT ( 'NONE', #222, 'mechanical' ) ;
#175 = DIRECTION ( 'NONE',  ( 3.491481338843133355E-15, -1.198223107250220118E-16, 1.000000000000000000 ) ) ;
#176 = PRODUCT_DEFINITION ( 'UNKNOWN', '', #217, #219 ) ;
#177 = DIRECTION ( 'NONE',  ( 3.491481338843133355E-15, -1.224646799147353454E-16, 1.000000000000000000 ) ) ;
#178 = ORGANIZATION ( 'UNSPECIFIED', 'UNSPECIFIED', '' ) ;
#179 = COORDINATED_UNIVERSAL_TIME_OFFSET ( 1, 0, .AHEAD. ) ;
#180 = DIRECTION ( 'NONE',  ( 4.275831445896959482E-31, 1.000000000000000000, 1.224646799147353454E-16 ) ) ;
#181 = DIRECTION ( 'NONE',  ( -4.275831445896959482E-31, -1.000000000000000000, -1.224646799147353454E-16 ) ) ;
#182 = CC_DESIGN_PERSON_AND_ORGANIZATION_ASSIGNMENT ( #108, #125, ( #210 ) ) ;
#183 = DATE_TIME_ROLE ( 'creation_date' ) ;
#184 = DIRECTION ( 'NONE',  ( 3.491481338843133355E-15, -1.198223107250220118E-16, 1.000000000000000000 ) ) ;
#185 = DIRECTION ( 'NONE',  ( 0.0000000000000000000, 1.000000000000000000, 0.0000000000000000000 ) ) ;
#186 = EDGE_CURVE ( 'NONE', #221, #221, #264, .T. ) ;
#187 = FACE_OUTER_BOUND ( 'NONE', #250, .T. ) ;
#188 = DIRECTION ( 'NONE',  ( 0.0000000000000000000, -1.000000000000000000, 0.0000000000000000000 ) ) ;
#189 = AXIS2_PLACEMENT_3D ( 'NONE', #126, #9, #203 ) ;
#190 = CARTESIAN_POINT ( 'NONE',  ( 8.728703347107828655E-15, -0.5000000000000006661, 2.499999999999998668 ) ) ;
#191 = CARTESIAN_POINT ( 'NONE',  ( 8.728703347107828655E-15, -2.168404344971008868E-16, 2.499999999999998668 ) ) ;
#192 = AXIS2_PLACEMENT_3D ( 'NONE', #236, #85, #251 ) ;
#193 = DIRECTION ( 'NONE',  ( 0.0000000000000000000, -1.000000000000000000, 0.0000000000000000000 ) ) ;
#194 = APPROVAL ( #132, 'UNSPECIFIED' ) ;
#195 = CARTESIAN_POINT ( 'NONE',  ( 1.006483540989498103E-14, -0.5761204674887140387, 2.882683432365089615 ) ) ;
#196 = PLANE ( 'NONE',  #239 ) ;
#197 = CIRCLE ( 'NONE', #41, 1.000000000000000444 ) ;
#198 = DATE_AND_TIME ( #286, #278 ) ;
#199 = EDGE_LOOP ( 'NONE', ( #149 ) ) ;
#200 = DIRECTION ( 'NONE',  ( 0.0000000000000000000, 0.0000000000000000000, 1.000000000000000000 ) ) ;
#201 = ORIENTED_EDGE ( 'NONE', *, *, #135, .T. ) ;
#202 = APPROVAL ( #234, 'UNSPECIFIED' ) ;
#203 = DIRECTION ( 'NONE',  ( 0.0000000000000000000, 1.000000000000000000, 0.0000000000000000000 ) ) ;
#204 = CARTESIAN_POINT ( 'NONE',  ( 0.0000000000000000000, 0.0000000000000000000, 0.0000000000000000000 ) ) ;
#205 = ORIENTED_EDGE ( 'NONE', *, *, #114, .F. ) ;
#206 = CIRCLE ( 'NONE', #189, 2.000000000000000000 ) ;
#207 = PERSON_AND_ORGANIZATION ( #5, #178 ) ;
#208 = ORIENTED_EDGE ( 'NONE', *, *, #49, .F. ) ;
#209 = DIRECTION ( 'NONE',  ( 3.491481338843133355E-15, -1.198223107250220118E-16, 1.000000000000000000 ) ) ;
#210 = PRODUCT ( '987582', '987582', '', ( #174 ) ) ;
#211 = APPROVAL_ROLE ( '' ) ;
#212 = LOCAL_TIME ( 15, 12, 36.00000000000000000, #179 ) ;
#213 = DATE_AND_TIME ( #237, #104 ) ;
#214 = DATE_AND_TIME ( #110, #17 ) ;
#215 = CARTESIAN_POINT ( 'NONE',  ( 1.006483540989498103E-14, -3.454097899547227508E-16, 2.882683432365089615 ) ) ;
#216 = CARTESIAN_POINT ( 'NONE',  ( 1.780655482809997696E-14, -6.110937846976122058E-16, 5.099999999999999645 ) ) ;
#217 = PRODUCT_DEFINITION_FORMATION_WITH_SPECIFIED_SOURCE ( 'ANY', '', #210, .NOT_KNOWN. ) ;
#218 = DIRECTION ( 'NONE',  ( 0.0000000000000000000, -1.000000000000000000, 0.0000000000000000000 ) ) ;
#219 = DESIGN_CONTEXT ( 'detailed design', #87, 'design' ) ;
#220 = COORDINATED_UNIVERSAL_TIME_OFFSET ( 1, 0, .AHEAD. ) ;
#221 = VERTEX_POINT ( 'NONE', #195 ) ;
#222 = APPLICATION_CONTEXT ( 'configuration controlled 3d designs of mechanical parts and assemblies' ) ;
#223 = EDGE_LOOP ( 'NONE', ( #205 ) ) ;
#224 = ADVANCED_FACE ( 'NONE', ( #288, #109 ), #54, .T. ) ;
#225 = APPLICATION_PROTOCOL_DEFINITION ( 'international standard', 'config_control_design', 1994, #222 ) ;
#226 = ORIENTED_EDGE ( 'NONE', *, *, #49, .T. ) ;
#227 = PRODUCT_RELATED_PRODUCT_CATEGORY ( 'detail', '', ( #210 ) ) ;
#228 = AXIS2_PLACEMENT_3D ( 'NONE', #61, #157, #38 ) ;
#229 = PLANE ( 'NONE',  #35 ) ;
#230 = PERSON_AND_ORGANIZATION ( #5, #178 ) ;
#231 = ORIENTED_EDGE ( 'NONE', *, *, #83, .F. ) ;
#232 = AXIS2_PLACEMENT_3D ( 'NONE', #64, #131, #99 ) ;
#233 = EDGE_CURVE ( 'NONE', #55, #55, #197, .T. ) ;
#234 = APPROVAL_STATUS ( 'not_yet_approved' ) ;
#235 = ORIENTED_EDGE ( 'NONE', *, *, #58, .F. ) ;
#236 = CARTESIAN_POINT ( 'NONE',  ( 2.478951750578613323E-14, -8.507384061476523837E-16, 7.099999999999967670 ) ) ;
#237 = CALENDAR_DATE ( 2021, 8, 11 ) ;
#238 = DIRECTION ( 'NONE',  ( 4.275831445896958607E-31, 1.000000000000000000, 1.224646799147353454E-16 ) ) ;
#239 = AXIS2_PLACEMENT_3D ( 'NONE', #40, #285, #287 ) ;
#240 = APPROVAL_ROLE ( '' ) ;
#241 = FACE_OUTER_BOUND ( 'NONE', #48, .T. ) ;
#242 = FACE_OUTER_BOUND ( 'NONE', #199, .T. ) ;
#243 = DATE_AND_TIME ( #43, #273 ) ;
#244 = CC_DESIGN_SECURITY_CLASSIFICATION ( #154, ( #217 ) ) ;
#245 = VERTEX_POINT ( 'NONE', #97 ) ;
#246 = VERTEX_POINT ( 'NONE', #19 ) ;
#247 = AXIS2_PLACEMENT_3D ( 'NONE', #191, #44, #303 ) ;
#248 =( NAMED_UNIT ( * ) PLANE_ANGLE_UNIT ( ) SI_UNIT ( $, .RADIAN. ) );
#249 = EDGE_LOOP ( 'NONE', ( #59 ) ) ;
#250 = EDGE_LOOP ( 'NONE', ( #69 ) ) ;
#251 = DIRECTION ( 'NONE',  ( 0.0000000000000000000, -1.000000000000000000, 0.0000000000000000000 ) ) ;
#252 = ADVANCED_FACE ( 'NONE', ( #166 ), #196, .F. ) ;
#253 = SECURITY_CLASSIFICATION_LEVEL ( 'unclassified' ) ;
#254 = DIRECTION ( 'NONE',  ( -3.491481338843133355E-15, 1.224646799147353454E-16, -1.000000000000000000 ) ) ;
#255 = ADVANCED_BREP_SHAPE_REPRESENTATION ( '987582', ( #155, #46, #34 ), #168 ) ;
#256 = CC_DESIGN_APPROVAL ( #194, ( #217 ) ) ;
#257 = EDGE_LOOP ( 'NONE', ( #27 ) ) ;
#258 = DIRECTION ( 'NONE',  ( -4.183573618734778004E-31, -1.000000000000000000, -1.198223107250220118E-16 ) ) ;
#259 = CARTESIAN_POINT ( 'NONE',  ( 0.0000000000000000000, 0.0000000000000000000, 0.0000000000000000000 ) ) ;
#260 = CALENDAR_DATE ( 2021, 8, 11 ) ;
#261 = DIRECTION ( 'NONE',  ( 3.491481338843133355E-15, -1.198223107250220118E-16, 1.000000000000000000 ) ) ;
#262 = ADVANCED_FACE ( 'NONE', ( #67, #165 ), #62, .T. ) ;
#263 = DIRECTION ( 'NONE',  ( 3.491481338843133355E-15, -1.198223107250220118E-16, 1.000000000000000000 ) ) ;
#264 = CIRCLE ( 'NONE', #150, 0.5761204674887137056 ) ;
#265 = PERSON_AND_ORGANIZATION ( #5, #178 ) ;
#266 = CARTESIAN_POINT ( 'NONE',  ( 8.728703347107828655E-15, -0.5000000000000006661, 2.499999999999998668 ) ) ;
#267 = VERTEX_POINT ( 'NONE', #23 ) ;
#268 = EDGE_LOOP ( 'NONE', ( #121 ) ) ;
#269 = CONICAL_SURFACE ( 'NONE', #232, 1.999999999999998668, 0.5235987755983074754 ) ;
#270 = AXIS2_PLACEMENT_3D ( 'NONE', #277, #254, #180 ) ;
#271 = EDGE_LOOP ( 'NONE', ( #226 ) ) ;
#272 = EDGE_LOOP ( 'NONE', ( #84 ) ) ;
#273 = LOCAL_TIME ( 15, 12, 36.00000000000000000, #220 ) ;
#274 = ORIENTED_EDGE ( 'NONE', *, *, #146, .F. ) ;
#275 = DATE_AND_TIME ( #260, #212 ) ;
#276 = EDGE_LOOP ( 'NONE', ( #201 ) ) ;
#277 = CARTESIAN_POINT ( 'NONE',  ( 1.222018468595096801E-13, 1.199807826129480202E-32, 35.00000000000000000 ) ) ;
#278 = LOCAL_TIME ( 15, 12, 36.00000000000000000, #142 ) ;
#279 = CC_DESIGN_PERSON_AND_ORGANIZATION_ASSIGNMENT ( #32, #118, ( #154 ) ) ;
#280 = CARTESIAN_POINT ( 'NONE',  ( 1.363779296638283662E-14, -4.680282401173852202E-16, 3.906019148566201249 ) ) ;
#281 = ADVANCED_FACE ( 'NONE', ( #91, #291 ), #290, .T. ) ;
#282 = DIRECTION ( 'NONE',  ( 0.0000000000000000000, -1.000000000000000000, 0.0000000000000000000 ) ) ;
#283 = DIRECTION ( 'NONE',  ( -4.183573618734778004E-31, -1.000000000000000000, -1.198223107250220118E-16 ) ) ;
#284 = PERSON_AND_ORGANIZATION_ROLE ( 'creator' ) ;
#285 = DIRECTION ( 'NONE',  ( 3.491481338843133355E-15, -1.224646799147353454E-16, 1.000000000000000000 ) ) ;
#286 = CALENDAR_DATE ( 2021, 8, 11 ) ;
#287 = DIRECTION ( 'NONE',  ( -4.275831445896959482E-31, -1.000000000000000000, -1.224646799147353454E-16 ) ) ;
#288 = FACE_BOUND ( 'NONE', #268, .T. ) ;
#289 = AXIS2_PLACEMENT_3D ( 'NONE', #134, #16, #300 ) ;
#290 = CYLINDRICAL_SURFACE ( 'NONE', #162, 1.000000000000000444 ) ;
#291 = FACE_OUTER_BOUND ( 'NONE', #80, .T. ) ;
#292 = CIRCLE ( 'NONE', #100, 1.600000000000000089 ) ;
#293 = PLANE ( 'NONE',  #3 ) ;
#294 = DIRECTION ( 'NONE',  ( -4.275831445896959482E-31, -1.000000000000000000, -1.224646799147353454E-16 ) ) ;
#295 = AXIS2_PLACEMENT_3D ( 'NONE', #15, #209, #153 ) ;
#296 = EDGE_LOOP ( 'NONE', ( #274 ) ) ;
#297 = DIRECTION ( 'NONE',  ( 0.0000000000000000000, -1.000000000000000000, 0.0000000000000000000 ) ) ;
#298 = AXIS2_PLACEMENT_3D ( 'NONE', #259, #39, #238 ) ;
#299 = APPROVAL_DATE_TIME ( #213, #202 ) ;
#300 = DIRECTION ( 'NONE',  ( -4.183573618734778004E-31, -1.000000000000000000, -1.198223107250220118E-16 ) ) ;
#301 = PERSON_AND_ORGANIZATION ( #5, #178 ) ;
#302 = DIRECTION ( 'NONE',  ( 0.0000000000000000000, -1.000000000000000000, 0.0000000000000000000 ) ) ;
#303 = DIRECTION ( 'NONE',  ( -4.289794796347816218E-31, -1.000000000000000000, -1.198223107250220118E-16 ) ) ;
ENDSEC;
END-ISO-10303-21;
