ISO-10303-21;
HEADER;
FILE_DESCRIPTION (( 'STEP AP203' ),
    '1' );
FILE_NAME ('987581.step',
    '2021-11-08T14:12:35',
    ( '' ),
    ( '' ),
    'SwSTEP 2.0',
    'SolidWorks 2019',
    '' );
FILE_SCHEMA (( 'CONFIG_CONTROL_DESIGN' ));
ENDSEC;

DATA;
#1 = APPLICATION_CONTEXT ( 'configuration controlled 3d designs of mechanical parts and assemblies' ) ;
#2 = VERTEX_POINT ( 'NONE', #281 ) ;
#3 = PERSON_AND_ORGANIZATION ( #297, #207 ) ;
#4 = AXIS2_PLACEMENT_3D ( 'NONE', #78, #287, #242 ) ;
#5 = SECURITY_CLASSIFICATION_LEVEL ( 'unclassified' ) ;
#6 = CARTESIAN_POINT ( 'NONE',  ( 1.780655482809997696E-14, -4.336808689942017736E-16, 5.099999999999999645 ) ) ;
#7 = DATE_AND_TIME ( #261, #73 ) ;
#8 = CC_DESIGN_PERSON_AND_ORGANIZATION_ASSIGNMENT ( #145, #288, ( #118 ) ) ;
#9 = ADVANCED_FACE ( 'NONE', ( #295, #252 ), #137, .T. ) ;
#10 = EDGE_LOOP ( 'NONE', ( #119 ) ) ;
#11 = AXIS2_PLACEMENT_3D ( 'NONE', #60, #37, #270 ) ;
#12 = EDGE_CURVE ( 'NONE', #300, #300, #227, .T. ) ;
#13 = ORIENTED_EDGE ( 'NONE', *, *, #31, .T. ) ;
#14 = DIRECTION ( 'NONE',  ( -4.183573618734778004E-31, -1.000000000000000000, -1.198223107250219871E-16 ) ) ;
#15 = ORIENTED_EDGE ( 'NONE', *, *, #81, .F. ) ;
#16 = ORIENTED_EDGE ( 'NONE', *, *, #223, .F. ) ;
#17 = MANIFOLD_SOLID_BREP ( 'Corps-Déplacer/Copier1[2]', #266 ) ;
#18 = DIRECTION ( 'NONE',  ( 4.275831445896959482E-31, 1.000000000000000000, 1.224646799147353454E-16 ) ) ;
#19 = EDGE_CURVE ( 'NONE', #189, #189, #202, .T. ) ;
#20 = CIRCLE ( 'NONE', #152, 0.4500000000000001221 ) ;
#21 = CARTESIAN_POINT ( 'NONE',  ( 1.780655482809997696E-14, -1.000000000000001110, 5.099999999999999645 ) ) ;
#22 = CALENDAR_DATE ( 2021, 8, 11 ) ;
#23 = DIRECTION ( 'NONE',  ( -4.237768097108776574E-31, -1.000000000000000000, -1.198223107250220118E-16 ) ) ;
#24 = APPROVAL_ROLE ( '' ) ;
#25 = CARTESIAN_POINT ( 'NONE',  ( 5.237222008264697666E-15, 1.499759782661855145E-32, 1.499999999999999334 ) ) ;
#26 = PERSON_AND_ORGANIZATION_ROLE ( 'creator' ) ;
#27 = CC_DESIGN_APPROVAL ( #114, ( #210 ) ) ;
#28 =( NAMED_UNIT ( * ) PLANE_ANGLE_UNIT ( ) SI_UNIT ( $, .RADIAN. ) );
#29 = CC_DESIGN_PERSON_AND_ORGANIZATION_ASSIGNMENT ( #47, #195, ( #267 ) ) ;
#30 = EDGE_LOOP ( 'NONE', ( #142 ) ) ;
#31 = EDGE_CURVE ( 'NONE', #284, #284, #20, .T. ) ;
#32 = AXIS2_PLACEMENT_3D ( 'NONE', #99, #214, #100 ) ;
#33 = ADVANCED_FACE ( 'NONE', ( #184, #87 ), #72, .T. ) ;
#34 = EDGE_LOOP ( 'NONE', ( #15 ) ) ;
#35 = ORIENTED_EDGE ( 'NONE', *, *, #223, .T. ) ;
#36 = EDGE_LOOP ( 'NONE', ( #35 ) ) ;
#37 = DIRECTION ( 'NONE',  ( 3.491481338843133355E-15, -1.198223107250220118E-16, 1.000000000000000000 ) ) ;
#38 = TOROIDAL_SURFACE ( 'NONE', #52, 2.000000000000000444, 1.000000000000000222 ) ;
#39 = DIRECTION ( 'NONE',  ( 0.0000000000000000000, -1.000000000000000000, 0.0000000000000000000 ) ) ;
#40 = CARTESIAN_POINT ( 'NONE',  ( 1.056777070759008990E-14, -3.626697617737250291E-16, 3.026729826684857461 ) ) ;
#41 = CARTESIAN_POINT ( 'NONE',  ( 0.0000000000000000000, 0.0000000000000000000, 0.0000000000000000000 ) ) ;
#42 = ADVANCED_FACE ( 'NONE', ( #138, #88 ), #181, .T. ) ;
#43 = VERTEX_POINT ( 'NONE', #186 ) ;
#44 = PERSON_AND_ORGANIZATION_ROLE ( 'design_owner' ) ;
#45 = DIRECTION ( 'NONE',  ( -3.491481338843133355E-15, 1.224646799147353454E-16, -1.000000000000000000 ) ) ;
#46 = VERTEX_POINT ( 'NONE', #97 ) ;
#47 = PERSON_AND_ORGANIZATION ( #297, #207 ) ;
#48 = CARTESIAN_POINT ( 'NONE',  ( 2.478951750578613323E-14, -8.507384061476523837E-16, 7.099999999999967670 ) ) ;
#49 = CALENDAR_DATE ( 2021, 8, 11 ) ;
#50 = CARTESIAN_POINT ( 'NONE',  ( 0.0000000000000000000, 0.0000000000000000000, 0.0000000000000000000 ) ) ;
#51 = DIRECTION ( 'NONE',  ( -3.491481338843133355E-15, 1.224646799147353454E-16, -1.000000000000000000 ) ) ;
#52 = AXIS2_PLACEMENT_3D ( 'NONE', #6, #216, #176 ) ;
#53 = DATE_TIME_ROLE ( 'classification_date' ) ;
#54 = ADVANCED_FACE ( 'NONE', ( #251, #124 ), #302, .T. ) ;
#55 = EDGE_CURVE ( 'NONE', #2, #2, #185, .T. ) ;
#56 = APPROVAL ( #108, 'UNSPECIFIED' ) ;
#57 = CARTESIAN_POINT ( 'NONE',  ( 2.478951750578613323E-14, -8.507384061476523837E-16, 7.099999999999967670 ) ) ;
#58 = CARTESIAN_POINT ( 'NONE',  ( 0.0000000000000000000, 0.0000000000000000000, 0.0000000000000000000 ) ) ;
#59 = AXIS2_PLACEMENT_3D ( 'NONE', #25, #126, #107 ) ;
#60 = CARTESIAN_POINT ( 'NONE',  ( 1.056777070759008990E-14, -3.626697617737250291E-16, 3.026729826684857461 ) ) ;
#61 = EDGE_CURVE ( 'NONE', #104, #104, #159, .T. ) ;
#62 = EDGE_LOOP ( 'NONE', ( #205 ) ) ;
#63 = CARTESIAN_POINT ( 'NONE',  ( 5.237222008264697666E-15, -1.797334660875329437E-16, 1.499999999999999334 ) ) ;
#64 = ADVANCED_BREP_SHAPE_REPRESENTATION ( '987581', ( #228, #17, #160 ), #95 ) ;
#65 = DIRECTION ( 'NONE',  ( 3.491481338843133355E-15, -1.198223107250220118E-16, 1.000000000000000000 ) ) ;
#66 = DIRECTION ( 'NONE',  ( 0.0000000000000000000, -1.000000000000000000, 0.0000000000000000000 ) ) ;
#67 = FACE_OUTER_BOUND ( 'NONE', #225, .T. ) ;
#68 = FACE_OUTER_BOUND ( 'NONE', #254, .T. ) ;
#69 = APPROVAL_DATE_TIME ( #222, #226 ) ;
#70 = PLANE ( 'NONE',  #59 ) ;
#71 = FACE_OUTER_BOUND ( 'NONE', #93, .T. ) ;
#72 = CONICAL_SURFACE ( 'NONE', #275, 1.999999999999998668, 0.5235987755983074754 ) ;
#73 = LOCAL_TIME ( 15, 12, 35.00000000000000000, #75 ) ;
#74 = CARTESIAN_POINT ( 'NONE',  ( -3.765216256861300904E-31, -0.4500000000000001221, -1.078400796525198279E-16 ) ) ;
#75 = COORDINATED_UNIVERSAL_TIME_OFFSET ( 1, 0, .AHEAD. ) ;
#76 = DIRECTION ( 'NONE',  ( 0.0000000000000000000, 1.000000000000000000, 0.0000000000000000000 ) ) ;
#77 = APPROVAL_STATUS ( 'not_yet_approved' ) ;
#78 = CARTESIAN_POINT ( 'NONE',  ( 5.237222008264697666E-15, 1.499759782661855145E-32, 1.499999999999999334 ) ) ;
#79 = PERSON_AND_ORGANIZATION ( #297, #207 ) ;
#80 = AXIS2_PLACEMENT_3D ( 'NONE', #237, #163, #23 ) ;
#81 = EDGE_CURVE ( 'NONE', #43, #43, #232, .T. ) ;
#82 = EDGE_LOOP ( 'NONE', ( #229 ) ) ;
#83 = ORIENTED_EDGE ( 'NONE', *, *, #134, .T. ) ;
#84 = AXIS2_PLACEMENT_3D ( 'NONE', #48, #286, #66 ) ;
#85 = LOCAL_TIME ( 15, 12, 35.00000000000000000, #199 ) ;
#86 = ORIENTED_EDGE ( 'NONE', *, *, #134, .F. ) ;
#87 = FACE_OUTER_BOUND ( 'NONE', #273, .T. ) ;
#88 = FACE_OUTER_BOUND ( 'NONE', #204, .T. ) ;
#89 = ORIENTED_EDGE ( 'NONE', *, *, #55, .F. ) ;
#90 = ADVANCED_FACE ( 'NONE', ( #68 ), #280, .F. ) ;
#91 = APPROVAL_PERSON_ORGANIZATION ( #79, #56, #262 ) ;
#92 = ORIENTED_EDGE ( 'NONE', *, *, #31, .F. ) ;
#93 = EDGE_LOOP ( 'NONE', ( #203 ) ) ;
#94 = CIRCLE ( 'NONE', #117, 1.000000000000000444 ) ;
#95 =( GEOMETRIC_REPRESENTATION_CONTEXT ( 3 ) GLOBAL_UNCERTAINTY_ASSIGNED_CONTEXT ( ( #130 ) ) GLOBAL_UNIT_ASSIGNED_CONTEXT ( ( #144, #28, #282 ) ) REPRESENTATION_CONTEXT ( 'NONE', 'WORKASPACE' ) );
#96 = PRODUCT_RELATED_PRODUCT_CATEGORY ( 'detail', '', ( #234 ) ) ;
#97 = CARTESIAN_POINT ( 'NONE',  ( 6.573354071051848462E-15, -0.5261204674887136612, 1.882683432365089393 ) ) ;
#98 = DIRECTION ( 'NONE',  ( 3.491481338843133355E-15, -1.198223107250220118E-16, 1.000000000000000000 ) ) ;
#99 = CARTESIAN_POINT ( 'NONE',  ( -3.206893176761000815E-31, 1.124826709063586741E-32, -9.184907108292241390E-17 ) ) ;
#100 = DIRECTION ( 'NONE',  ( -4.275831445896959482E-31, -1.000000000000000000, -1.224646799147353454E-16 ) ) ;
#101 = DIRECTION ( 'NONE',  ( 3.491481338843133355E-15, -1.198223107250220118E-16, 1.000000000000000000 ) ) ;
#102 = MECHANICAL_CONTEXT ( 'NONE', #290, 'mechanical' ) ;
#103 = FACE_OUTER_BOUND ( 'NONE', #208, .T. ) ;
#104 = VERTEX_POINT ( 'NONE', #211 ) ;
#105 = COORDINATED_UNIVERSAL_TIME_OFFSET ( 1, 0, .AHEAD. ) ;
#106 = AXIS2_PLACEMENT_3D ( 'NONE', #187, #98, #279 ) ;
#107 = DIRECTION ( 'NONE',  ( -4.275831445896959482E-31, -1.000000000000000000, -1.224646799147353454E-16 ) ) ;
#108 = APPROVAL_STATUS ( 'not_yet_approved' ) ;
#109 = CARTESIAN_POINT ( 'NONE',  ( 1.222018468595096801E-13, 1.199807826129480202E-32, 35.00000000000000000 ) ) ;
#110 = COORDINATED_UNIVERSAL_TIME_OFFSET ( 1, 0, .AHEAD. ) ;
#111 = CIRCLE ( 'NONE', #84, 1.999999999999998668 ) ;
#112 = APPROVAL_PERSON_ORGANIZATION ( #125, #114, #132 ) ;
#113 = EDGE_LOOP ( 'NONE', ( #83 ) ) ;
#114 = APPROVAL ( #77, 'UNSPECIFIED' ) ;
#115 = EDGE_LOOP ( 'NONE', ( #13 ) ) ;
#116 = DIRECTION ( 'NONE',  ( 3.491481338843133355E-15, -1.198223107250220118E-16, 1.000000000000000000 ) ) ;
#117 = AXIS2_PLACEMENT_3D ( 'NONE', #303, #173, #129 ) ;
#118 = PRODUCT_DEFINITION_FORMATION_WITH_SPECIFIED_SOURCE ( 'ANY', '', #234, .NOT_KNOWN. ) ;
#119 = ORIENTED_EDGE ( 'NONE', *, *, #19, .F. ) ;
#120 = ADVANCED_FACE ( 'NONE', ( #131, #220 ), #38, .F. ) ;
#121 = CC_DESIGN_DATE_AND_TIME_ASSIGNMENT ( #164, #172, ( #210 ) ) ;
#122 = FACE_OUTER_BOUND ( 'NONE', #140, .T. ) ;
#123 = AXIS2_PLACEMENT_3D ( 'NONE', #40, #101, #255 ) ;
#124 = FACE_OUTER_BOUND ( 'NONE', #34, .T. ) ;
#125 = PERSON_AND_ORGANIZATION ( #297, #207 ) ;
#126 = DIRECTION ( 'NONE',  ( 3.491481338843133355E-15, -1.224646799147353454E-16, 1.000000000000000000 ) ) ;
#127 = CARTESIAN_POINT ( 'NONE',  ( 1.208052543239724267E-13, 1.999999999999995781, 34.60000000000000853 ) ) ;
#128 = ADVANCED_FACE ( 'NONE', ( #194 ), #70, .T. ) ;
#129 = DIRECTION ( 'NONE',  ( 0.0000000000000000000, -1.000000000000000000, 0.0000000000000000000 ) ) ;
#130 = UNCERTAINTY_MEASURE_WITH_UNIT (LENGTH_MEASURE( 1.000000000000000082E-05 ), #144, 'distance_accuracy_value', 'NONE');
#131 = FACE_OUTER_BOUND ( 'NONE', #113, .T. ) ;
#132 = APPROVAL_ROLE ( '' ) ;
#133 = DIRECTION ( 'NONE',  ( -3.491481338843133355E-15, 1.224646799147353454E-16, -1.000000000000000000 ) ) ;
#134 = EDGE_CURVE ( 'NONE', #257, #257, #94, .T. ) ;
#135 = CALENDAR_DATE ( 2021, 8, 11 ) ;
#136 = ORIENTED_EDGE ( 'NONE', *, *, #139, .F. ) ;
#137 = CONICAL_SURFACE ( 'NONE', #11, 1.000000000000000444, 0.3926990816987251387 ) ;
#138 = FACE_OUTER_BOUND ( 'NONE', #62, .T. ) ;
#139 = EDGE_CURVE ( 'NONE', #192, #192, #239, .T. ) ;
#140 = EDGE_LOOP ( 'NONE', ( #92 ) ) ;
#141 = AXIS2_PLACEMENT_3D ( 'NONE', #190, #65, #161 ) ;
#142 = ORIENTED_EDGE ( 'NONE', *, *, #61, .T. ) ;
#143 = FACE_BOUND ( 'NONE', #180, .T. ) ;
#144 =( LENGTH_UNIT ( ) NAMED_UNIT ( * ) SI_UNIT ( .MILLI., .METRE. ) );
#145 = PERSON_AND_ORGANIZATION ( #297, #207 ) ;
#146 = CIRCLE ( 'NONE', #224, 0.5261204674887134392 ) ;
#147 = FACE_OUTER_BOUND ( 'NONE', #274, .T. ) ;
#148 = APPROVAL_DATE_TIME ( #258, #56 ) ;
#149 = APPLICATION_PROTOCOL_DEFINITION ( 'international standard', 'config_control_design', 1994, #1 ) ;
#150 = AXIS2_PLACEMENT_3D ( 'NONE', #63, #233, #39 ) ;
#151 = APPROVAL_DATE_TIME ( #7, #114 ) ;
#152 = AXIS2_PLACEMENT_3D ( 'NONE', #298, #294, #14 ) ;
#153 = ORIENTED_EDGE ( 'NONE', *, *, #174, .T. ) ;
#154 = CLOSED_SHELL ( 'NONE', ( #230, #253, #201, #33, #120, #42, #9, #301, #90 ) ) ;
#155 = TOROIDAL_SURFACE ( 'NONE', #80, 1.450000000000000178, 1.000000000000000000 ) ;
#156 = DIRECTION ( 'NONE',  ( 3.491481338843133355E-15, -1.198223107250220118E-16, 1.000000000000000000 ) ) ;
#157 = EDGE_LOOP ( 'NONE', ( #247 ) ) ;
#158 = ORIENTED_EDGE ( 'NONE', *, *, #12, .F. ) ;
#159 = CIRCLE ( 'NONE', #141, 1.133974596215565622 ) ;
#160 = AXIS2_PLACEMENT_3D ( 'NONE', #50, #263, #265 ) ;
#161 = DIRECTION ( 'NONE',  ( 0.0000000000000000000, -1.000000000000000000, 0.0000000000000000000 ) ) ;
#162 = DIRECTION ( 'NONE',  ( 3.491481338843133355E-15, -1.198223107250220118E-16, 1.000000000000000000 ) ) ;
#163 = DIRECTION ( 'NONE',  ( 3.491481338843133355E-15, -1.198223107250220118E-16, 1.000000000000000000 ) ) ;
#164 = DATE_AND_TIME ( #193, #293 ) ;
#165 = CYLINDRICAL_SURFACE ( 'NONE', #170, 1.999999999999997780 ) ;
#166 = CC_DESIGN_PERSON_AND_ORGANIZATION_ASSIGNMENT ( #241, #44, ( #234 ) ) ;
#167 = CARTESIAN_POINT ( 'NONE',  ( 1.222018468595096801E-13, 1.599999999999995648, 35.00000000000000000 ) ) ;
#168 = DIRECTION ( 'NONE',  ( 3.491481338843133355E-15, -1.198223107250220118E-16, 1.000000000000000000 ) ) ;
#169 = PERSON_AND_ORGANIZATION_ROLE ( 'creator' ) ;
#170 = AXIS2_PLACEMENT_3D ( 'NONE', #41, #45, #188 ) ;
#171 = CARTESIAN_POINT ( 'NONE',  ( 2.478951750578613323E-14, -1.999999999999999556, 7.099999999999967670 ) ) ;
#172 = DATE_TIME_ROLE ( 'creation_date' ) ;
#173 = DIRECTION ( 'NONE',  ( 3.491481338843133355E-15, -1.198223107250220118E-16, 1.000000000000000000 ) ) ;
#174 = EDGE_CURVE ( 'NONE', #260, #260, #111, .T. ) ;
#175 = COORDINATED_UNIVERSAL_TIME_OFFSET ( 1, 0, .AHEAD. ) ;
#176 = DIRECTION ( 'NONE',  ( -4.183573618734778004E-31, -1.000000000000000000, -1.198223107250220118E-16 ) ) ;
#177 = CC_DESIGN_PERSON_AND_ORGANIZATION_ASSIGNMENT ( #244, #26, ( #118 ) ) ;
#178 = DATE_AND_TIME ( #135, #285 ) ;
#179 = CC_DESIGN_APPROVAL ( #56, ( #118 ) ) ;
#180 = EDGE_LOOP ( 'NONE', ( #269 ) ) ;
#181 = CYLINDRICAL_SURFACE ( 'NONE', #200, 1.000000000000000444 ) ;
#182 = AXIS2_PLACEMENT_3D ( 'NONE', #109, #51, #18 ) ;
#183 = DIRECTION ( 'NONE',  ( -4.183573618734778004E-31, -1.000000000000000000, -1.198223107250220118E-16 ) ) ;
#184 = FACE_BOUND ( 'NONE', #30, .T. ) ;
#185 = CIRCLE ( 'NONE', #123, 1.000000000000000444 ) ;
#186 = CARTESIAN_POINT ( 'NONE',  ( 5.237222008264697666E-15, -0.4500000000000001776, 1.499999999999999334 ) ) ;
#187 = CARTESIAN_POINT ( 'NONE',  ( 5.237222008264697666E-15, -1.797334660875329437E-16, 1.499999999999999334 ) ) ;
#188 = DIRECTION ( 'NONE',  ( 4.275831445896958607E-31, 1.000000000000000000, 1.224646799147353700E-16 ) ) ;
#189 = VERTEX_POINT ( 'NONE', #127 ) ;
#190 = CARTESIAN_POINT ( 'NONE',  ( 1.955229549752156888E-14, -6.710049400601240745E-16, 5.600000000000006750 ) ) ;
#191 = FACE_OUTER_BOUND ( 'NONE', #246, .T. ) ;
#192 = VERTEX_POINT ( 'NONE', #167 ) ;
#193 = CALENDAR_DATE ( 2021, 8, 11 ) ;
#194 = FACE_OUTER_BOUND ( 'NONE', #82, .T. ) ;
#195 = PERSON_AND_ORGANIZATION_ROLE ( 'classification_officer' ) ;
#196 = CARTESIAN_POINT ( 'NONE',  ( 1.222018468595096801E-13, -4.286263797015737285E-15, 35.00000000000000000 ) ) ;
#197 = CC_DESIGN_PERSON_AND_ORGANIZATION_ASSIGNMENT ( #3, #169, ( #210 ) ) ;
#198 = CARTESIAN_POINT ( 'NONE',  ( 6.573354071051848462E-15, -2.255874792297007390E-16, 1.882683432365089393 ) ) ;
#199 = COORDINATED_UNIVERSAL_TIME_OFFSET ( 1, 0, .AHEAD. ) ;
#200 = AXIS2_PLACEMENT_3D ( 'NONE', #58, #156, #183 ) ;
#201 = ADVANCED_FACE ( 'NONE', ( #103 ), #264, .F. ) ;
#202 = CIRCLE ( 'NONE', #212, 2.000000000000000000 ) ;
#203 = ORIENTED_EDGE ( 'NONE', *, *, #12, .T. ) ;
#204 = EDGE_LOOP ( 'NONE', ( #86 ) ) ;
#205 = ORIENTED_EDGE ( 'NONE', *, *, #55, .T. ) ;
#206 = CONICAL_SURFACE ( 'NONE', #248, 1.600000000000000089, 0.7853981633974512766 ) ;
#207 = ORGANIZATION ( 'UNSPECIFIED', 'UNSPECIFIED', '' ) ;
#208 = EDGE_LOOP ( 'NONE', ( #136 ) ) ;
#209 = DIRECTION ( 'NONE',  ( 0.0000000000000000000, 1.000000000000000000, 0.0000000000000000000 ) ) ;
#210 = PRODUCT_DEFINITION ( 'UNKNOWN', '', #118, #221 ) ;
#211 = CARTESIAN_POINT ( 'NONE',  ( 1.955229549752156888E-14, -1.133974596215566288, 5.600000000000006750 ) ) ;
#212 = AXIS2_PLACEMENT_3D ( 'NONE', #296, #231, #209 ) ;
#213 = APPROVAL_PERSON_ORGANIZATION ( #245, #226, #24 ) ;
#214 = DIRECTION ( 'NONE',  ( 3.491481338843133355E-15, -1.224646799147353454E-16, 1.000000000000000000 ) ) ;
#215 = SHAPE_DEFINITION_REPRESENTATION ( #268, #64 ) ;
#216 = DIRECTION ( 'NONE',  ( 3.491481338843133355E-15, -1.198223107250220118E-16, 1.000000000000000000 ) ) ;
#217 = CARTESIAN_POINT ( 'NONE',  ( 5.237222008264697666E-15, -0.4500000000000001776, 1.499999999999999334 ) ) ;
#218 = CARTESIAN_POINT ( 'NONE',  ( 1.222018468595096801E-13, -4.286263797015737285E-15, 35.00000000000000000 ) ) ;
#219 = AXIS2_PLACEMENT_3D ( 'NONE', #196, #133, #283 ) ;
#220 = FACE_OUTER_BOUND ( 'NONE', #157, .T. ) ;
#221 = DESIGN_CONTEXT ( 'detailed design', #1, 'design' ) ;
#222 = DATE_AND_TIME ( #22, #85 ) ;
#223 = EDGE_CURVE ( 'NONE', #46, #46, #146, .T. ) ;
#224 = AXIS2_PLACEMENT_3D ( 'NONE', #198, #162, #256 ) ;
#225 = EDGE_LOOP ( 'NONE', ( #16 ) ) ;
#226 = APPROVAL ( #240, 'UNSPECIFIED' ) ;
#227 = CIRCLE ( 'NONE', #150, 0.4500000000000000666 ) ;
#228 = MANIFOLD_SOLID_BREP ( 'Corps-Déplacer/Copier1[1]', #154 ) ;
#229 = ORIENTED_EDGE ( 'NONE', *, *, #81, .T. ) ;
#230 = ADVANCED_FACE ( 'NONE', ( #147, #191 ), #165, .T. ) ;
#231 = DIRECTION ( 'NONE',  ( -3.491481338843133355E-15, 1.224646799147353454E-16, -1.000000000000000000 ) ) ;
#232 = CIRCLE ( 'NONE', #106, 0.4500000000000000666 ) ;
#233 = DIRECTION ( 'NONE',  ( 3.491481338843133355E-15, -1.198223107250220118E-16, 1.000000000000000000 ) ) ;
#234 = PRODUCT ( '987581', '987581', '', ( #102 ) ) ;
#235 = ORIENTED_EDGE ( 'NONE', *, *, #174, .F. ) ;
#236 = DIRECTION ( 'NONE',  ( -3.491481338843133355E-15, 1.224646799147353454E-16, -1.000000000000000000 ) ) ;
#237 = CARTESIAN_POINT ( 'NONE',  ( 5.237222008264696089E-15, -2.168404344971008868E-16, 1.499999999999998890 ) ) ;
#238 = CARTESIAN_POINT ( 'NONE',  ( 0.0000000000000000000, 0.0000000000000000000, 0.0000000000000000000 ) ) ;
#239 = CIRCLE ( 'NONE', #219, 1.600000000000000089 ) ;
#240 = APPROVAL_STATUS ( 'not_yet_approved' ) ;
#241 = PERSON_AND_ORGANIZATION ( #297, #207 ) ;
#242 = DIRECTION ( 'NONE',  ( -4.275831445896959482E-31, -1.000000000000000000, -1.224646799147353454E-16 ) ) ;
#243 = APPLICATION_PROTOCOL_DEFINITION ( 'international standard', 'config_control_design', 1994, #290 ) ;
#244 = PERSON_AND_ORGANIZATION ( #297, #207 ) ;
#245 = PERSON_AND_ORGANIZATION ( #297, #207 ) ;
#246 = EDGE_LOOP ( 'NONE', ( #153 ) ) ;
#247 = ORIENTED_EDGE ( 'NONE', *, *, #61, .F. ) ;
#248 = AXIS2_PLACEMENT_3D ( 'NONE', #218, #236, #76 ) ;
#249 = DIRECTION ( 'NONE',  ( 0.0000000000000000000, -1.000000000000000000, 0.0000000000000000000 ) ) ;
#250 = CC_DESIGN_APPROVAL ( #226, ( #267 ) ) ;
#251 = FACE_OUTER_BOUND ( 'NONE', #115, .T. ) ;
#252 = FACE_OUTER_BOUND ( 'NONE', #291, .T. ) ;
#253 = ADVANCED_FACE ( 'NONE', ( #259, #143 ), #206, .T. ) ;
#254 = EDGE_LOOP ( 'NONE', ( #158 ) ) ;
#255 = DIRECTION ( 'NONE',  ( 0.0000000000000000000, -1.000000000000000000, 0.0000000000000000000 ) ) ;
#256 = DIRECTION ( 'NONE',  ( 0.0000000000000000000, -1.000000000000000000, 0.0000000000000000000 ) ) ;
#257 = VERTEX_POINT ( 'NONE', #21 ) ;
#258 = DATE_AND_TIME ( #49, #277 ) ;
#259 = FACE_OUTER_BOUND ( 'NONE', #10, .T. ) ;
#260 = VERTEX_POINT ( 'NONE', #171 ) ;
#261 = CALENDAR_DATE ( 2021, 8, 11 ) ;
#262 = APPROVAL_ROLE ( '' ) ;
#263 = DIRECTION ( 'NONE',  ( 0.0000000000000000000, 0.0000000000000000000, 1.000000000000000000 ) ) ;
#264 = PLANE ( 'NONE',  #182 ) ;
#265 = DIRECTION ( 'NONE',  ( 1.000000000000000000, 0.0000000000000000000, 0.0000000000000000000 ) ) ;
#266 = CLOSED_SHELL ( 'NONE', ( #128, #54, #271 ) ) ;
#267 = SECURITY_CLASSIFICATION ( '', '', #5 ) ;
#268 = PRODUCT_DEFINITION_SHAPE ( 'NONE', 'NONE',  #210 ) ;
#269 = ORIENTED_EDGE ( 'NONE', *, *, #139, .T. ) ;
#270 = DIRECTION ( 'NONE',  ( 0.0000000000000000000, -1.000000000000000000, 0.0000000000000000000 ) ) ;
#271 = ADVANCED_FACE ( 'NONE', ( #122 ), #299, .F. ) ;
#272 = ORIENTED_EDGE ( 'NONE', *, *, #19, .T. ) ;
#273 = EDGE_LOOP ( 'NONE', ( #235 ) ) ;
#274 = EDGE_LOOP ( 'NONE', ( #272 ) ) ;
#275 = AXIS2_PLACEMENT_3D ( 'NONE', #57, #116, #249 ) ;
#276 = CC_DESIGN_DATE_AND_TIME_ASSIGNMENT ( #178, #53, ( #267 ) ) ;
#277 = LOCAL_TIME ( 15, 12, 35.00000000000000000, #110 ) ;
#278 = DIRECTION ( 'NONE',  ( -4.183573618734778004E-31, -1.000000000000000000, -1.198223107250219871E-16 ) ) ;
#279 = DIRECTION ( 'NONE',  ( 0.0000000000000000000, -1.000000000000000000, 0.0000000000000000000 ) ) ;
#280 = PLANE ( 'NONE',  #4 ) ;
#281 = CARTESIAN_POINT ( 'NONE',  ( 1.056777070759008990E-14, -1.000000000000000888, 3.026729826684857461 ) ) ;
#282 =( NAMED_UNIT ( * ) SI_UNIT ( $, .STERADIAN. ) SOLID_ANGLE_UNIT ( ) );
#283 = DIRECTION ( 'NONE',  ( 0.0000000000000000000, 1.000000000000000000, 0.0000000000000000000 ) ) ;
#284 = VERTEX_POINT ( 'NONE', #74 ) ;
#285 = LOCAL_TIME ( 15, 12, 35.00000000000000000, #175 ) ;
#286 = DIRECTION ( 'NONE',  ( 3.491481338843133355E-15, -1.198223107250220118E-16, 1.000000000000000000 ) ) ;
#287 = DIRECTION ( 'NONE',  ( 3.491481338843133355E-15, -1.224646799147353454E-16, 1.000000000000000000 ) ) ;
#288 = PERSON_AND_ORGANIZATION_ROLE ( 'design_supplier' ) ;
#289 = CC_DESIGN_SECURITY_CLASSIFICATION ( #267, ( #118 ) ) ;
#290 = APPLICATION_CONTEXT ( 'configuration controlled 3d designs of mechanical parts and assemblies' ) ;
#291 = EDGE_LOOP ( 'NONE', ( #89 ) ) ;
#292 = AXIS2_PLACEMENT_3D ( 'NONE', #238, #168, #278 ) ;
#293 = LOCAL_TIME ( 15, 12, 35.00000000000000000, #105 ) ;
#294 = DIRECTION ( 'NONE',  ( 3.491481338843133355E-15, -1.198223107250220118E-16, 1.000000000000000000 ) ) ;
#295 = FACE_BOUND ( 'NONE', #36, .T. ) ;
#296 = CARTESIAN_POINT ( 'NONE',  ( 1.208052543239724267E-13, -4.237277925049843857E-15, 34.60000000000000853 ) ) ;
#297 = PERSON ( 'UNSPECIFIED', 'UNSPECIFIED', 'UNSPECIFIED', ('UNSPECIFIED'), ('UNSPECIFIED'), ('UNSPECIFIED') ) ;
#298 = CARTESIAN_POINT ( 'NONE',  ( -1.882608128430650452E-31, 6.460823766367677741E-33, -5.392003982625991393E-17 ) ) ;
#299 = PLANE ( 'NONE',  #32 ) ;
#300 = VERTEX_POINT ( 'NONE', #217 ) ;
#301 = ADVANCED_FACE ( 'NONE', ( #71, #67 ), #155, .F. ) ;
#302 = CYLINDRICAL_SURFACE ( 'NONE', #292, 0.4500000000000001221 ) ;
#303 = CARTESIAN_POINT ( 'NONE',  ( 1.780655482809997696E-14, -6.110937846976122058E-16, 5.099999999999999645 ) ) ;
ENDSEC;
END-ISO-10303-21;
