ISO-10303-21;
HEADER;
FILE_DESCRIPTION (( 'STEP AP203' ),
    '1' );
FILE_NAME ('986900.step',
    '2021-12-16T09:22:11',
    ( '' ),
    ( '' ),
    'SwSTEP 2.0',
    'SolidWorks 2019',
    '' );
FILE_SCHEMA (( 'CONFIG_CONTROL_DESIGN' ));
ENDSEC;

DATA;
#1 = CARTESIAN_POINT ( 'NONE',  ( 4.731839565957901202E-32, 0.4799999999999998712, 1.355252715606880543E-17 ) ) ;
#2 = DATE_TIME_ROLE ( 'classification_date' ) ;
#3 = CYLINDRICAL_SURFACE ( 'NONE', #278, 0.7209999999999996412 ) ;
#4 = PERSON_AND_ORGANIZATION ( #124, #214 ) ;
#5 = CALENDAR_DATE ( 2021, 16, 12 ) ;
#6 = LOCAL_TIME ( 10, 22, 11.00000000000000000, #52 ) ;
#7 = DIRECTION ( 'NONE',  ( 0.0000000000000000000, -1.000000000000000000, 0.0000000000000000000 ) ) ;
#8 = PERSON_AND_ORGANIZATION ( #124, #214 ) ;
#9 = DIRECTION ( 'NONE',  ( -3.491481338843133355E-15, 1.224646799147353207E-16, -1.000000000000000000 ) ) ;
#10 = PLANE ( 'NONE',  #247 ) ;
#11 = AXIS2_PLACEMENT_3D ( 'NONE', #152, #215, #42 ) ;
#12 = PERSON_AND_ORGANIZATION ( #124, #214 ) ;
#13 = PERSON_AND_ORGANIZATION_ROLE ( 'creator' ) ;
#14 = ADVANCED_FACE ( 'NONE', ( #145 ), #10, .F. ) ;
#15 = PLANE ( 'NONE',  #189 ) ;
#16 =( GEOMETRIC_REPRESENTATION_CONTEXT ( 3 ) GLOBAL_UNCERTAINTY_ASSIGNED_CONTEXT ( ( #41 ) ) GLOBAL_UNIT_ASSIGNED_CONTEXT ( ( #114, #183, #23 ) ) REPRESENTATION_CONTEXT ( 'NONE', 'WORKASPACE' ) );
#17 = DIRECTION ( 'NONE',  ( -5.342385421323821257E-31, -1.000000000000000000, -1.503747812046470730E-16 ) ) ;
#18 = ORIENTED_EDGE ( 'NONE', *, *, #129, .F. ) ;
#19 = APPLICATION_CONTEXT ( 'configuration controlled 3d designs of mechanical parts and assemblies' ) ;
#20 = LOCAL_TIME ( 10, 22, 11.00000000000000000, #267 ) ;
#21 = CIRCLE ( 'NONE', #136, 0.7380370868554646524 ) ;
#22 = DIRECTION ( 'NONE',  ( 3.491481338843133355E-15, -1.224646799147353207E-16, 1.000000000000000000 ) ) ;
#23 =( NAMED_UNIT ( * ) SI_UNIT ( $, .STERADIAN. ) SOLID_ANGLE_UNIT ( ) );
#24 = CC_DESIGN_DATE_AND_TIME_ASSIGNMENT ( #216, #2, ( #236 ) ) ;
#25 = ADVANCED_FACE ( 'NONE', ( #104, #168 ), #113, .T. ) ;
#26 = CIRCLE ( 'NONE', #11, 0.6000000000000000888 ) ;
#27 = DIRECTION ( 'NONE',  ( 4.275831445896957731E-31, 1.000000000000000000, 1.224646799147353207E-16 ) ) ;
#28 = CC_DESIGN_PERSON_AND_ORGANIZATION_ASSIGNMENT ( #219, #271, ( #132 ) ) ;
#29 = VERTEX_POINT ( 'NONE', #157 ) ;
#30 = PERSON_AND_ORGANIZATION_ROLE ( 'creator' ) ;
#31 = AXIS2_PLACEMENT_3D ( 'NONE', #220, #44, #111 ) ;
#32 = CARTESIAN_POINT ( 'NONE',  ( 1.042207179644675275E-13, -3.655570695454848748E-15, 29.84999999999999787 ) ) ;
#33 = ORIENTED_EDGE ( 'NONE', *, *, #254, .T. ) ;
#34 = CARTESIAN_POINT ( 'NONE',  ( 3.140322965808199412E-15, -1.101477022254455602E-16, 0.8994242446241207389 ) ) ;
#35 = ADVANCED_FACE ( 'NONE', ( #229, #250 ), #209, .T. ) ;
#36 = FACE_OUTER_BOUND ( 'NONE', #78, .T. ) ;
#37 = CIRCLE ( 'NONE', #196, 0.4799999999999998712 ) ;
#38 = DIRECTION ( 'NONE',  ( 4.275831445896958607E-31, 1.000000000000000000, 1.224646799147353207E-16 ) ) ;
#39 = AXIS2_PLACEMENT_3D ( 'NONE', #120, #273, #54 ) ;
#40 = CARTESIAN_POINT ( 'NONE',  ( -1.579215137434749286E-31, 5.539141056573190865E-33, -4.523051920300413545E-17 ) ) ;
#41 = UNCERTAINTY_MEASURE_WITH_UNIT (LENGTH_MEASURE( 1.000000000000000082E-05 ), #114, 'distance_accuracy_value', 'NONE');
#42 = DIRECTION ( 'NONE',  ( 0.0000000000000000000, 1.000000000000000000, 0.0000000000000000000 ) ) ;
#43 = VERTEX_POINT ( 'NONE', #93 ) ;
#44 = DIRECTION ( 'NONE',  ( -3.491481338843133355E-15, 1.224646799147353207E-16, -1.000000000000000000 ) ) ;
#45 = CIRCLE ( 'NONE', #223, 0.7209999999999993081 ) ;
#46 = COORDINATED_UNIVERSAL_TIME_OFFSET ( 1, 0, .AHEAD. ) ;
#47 = VERTEX_POINT ( 'NONE', #1 ) ;
#48 = APPROVAL_DATE_TIME ( #184, #100 ) ;
#49 = ORIENTED_EDGE ( 'NONE', *, *, #126, .T. ) ;
#50 = MECHANICAL_CONTEXT ( 'NONE', #82, 'mechanical' ) ;
#51 = ORIENTED_EDGE ( 'NONE', *, *, #126, .F. ) ;
#52 = COORDINATED_UNIVERSAL_TIME_OFFSET ( 1, 0, .AHEAD. ) ;
#53 = EDGE_LOOP ( 'NONE', ( #139 ) ) ;
#54 = DIRECTION ( 'NONE',  ( -4.275831445896958607E-31, -1.000000000000000000, -1.224646799147353207E-16 ) ) ;
#55 = EDGE_CURVE ( 'NONE', #266, #266, #45, .T. ) ;
#56 = CARTESIAN_POINT ( 'NONE',  ( 2.260404474073794498E-14, -7.928431617709984555E-16, 6.474055722213186037 ) ) ;
#57 = DIRECTION ( 'NONE',  ( -3.491481338843133355E-15, 1.224646799147353207E-16, -1.000000000000000000 ) ) ;
#58 = PERSON_AND_ORGANIZATION ( #124, #214 ) ;
#59 = CC_DESIGN_SECURITY_CLASSIFICATION ( #236, ( #192 ) ) ;
#60 = FACE_OUTER_BOUND ( 'NONE', #53, .T. ) ;
#61 = DIRECTION ( 'NONE',  ( 0.0000000000000000000, 1.000000000000000000, 0.0000000000000000000 ) ) ;
#62 = AXIS2_PLACEMENT_3D ( 'NONE', #259, #64, #154 ) ;
#63 = ORIENTED_EDGE ( 'NONE', *, *, #115, .T. ) ;
#64 = DIRECTION ( 'NONE',  ( -3.491481338843133355E-15, 1.224646799147353207E-16, -1.000000000000000000 ) ) ;
#65 = ORIENTED_EDGE ( 'NONE', *, *, #180, .F. ) ;
#66 = DIRECTION ( 'NONE',  ( -3.491481338843133355E-15, 1.224646799147353207E-16, -1.000000000000000000 ) ) ;
#67 = ADVANCED_FACE ( 'NONE', ( #204 ), #224, .F. ) ;
#68 = CARTESIAN_POINT ( 'NONE',  ( 0.0000000000000000000, 0.0000000000000000000, 0.0000000000000000000 ) ) ;
#69 = VERTEX_POINT ( 'NONE', #262 ) ;
#70 = ADVANCED_BREP_SHAPE_REPRESENTATION ( '986900', ( #80, #268, #131 ), #16 ) ;
#71 = APPROVAL_ROLE ( '' ) ;
#72 = AXIS2_PLACEMENT_3D ( 'NONE', #279, #88, #17 ) ;
#73 = DATE_AND_TIME ( #98, #6 ) ;
#74 = CARTESIAN_POINT ( 'NONE',  ( 1.745740669421566678E-14, -6.123233995736766282E-16, 5.000000000000000000 ) ) ;
#75 = CC_DESIGN_PERSON_AND_ORGANIZATION_ASSIGNMENT ( #58, #148, ( #192 ) ) ;
#76 = ADVANCED_FACE ( 'NONE', ( #36, #118 ), #123, .T. ) ;
#77 = CARTESIAN_POINT ( 'NONE',  ( 1.047444401652940007E-13, 4.499279347985518085E-33, 30.00000000000000000 ) ) ;
#78 = EDGE_LOOP ( 'NONE', ( #108 ) ) ;
#79 = DIRECTION ( 'NONE',  ( -3.491481338843133355E-15, 1.224646799147353207E-16, -1.000000000000000000 ) ) ;
#80 = MANIFOLD_SOLID_BREP ( 'Corps-Déplacer/Copier1[1]', #155 ) ;
#81 = CALENDAR_DATE ( 2021, 16, 12 ) ;
#82 = APPLICATION_CONTEXT ( 'configuration controlled 3d designs of mechanical parts and assemblies' ) ;
#83 = APPROVAL_PERSON_ORGANIZATION ( #244, #179, #137 ) ;
#84 = EDGE_CURVE ( 'NONE', #69, #69, #103, .T. ) ;
#85 = CIRCLE ( 'NONE', #270, 0.7209999999999998632 ) ;
#86 = ORIENTED_EDGE ( 'NONE', *, *, #55, .T. ) ;
#87 = DESIGN_CONTEXT ( 'detailed design', #19, 'design' ) ;
#88 = DIRECTION ( 'NONE',  ( 3.491481338843133355E-15, -1.224646799147353207E-16, 1.000000000000000000 ) ) ;
#89 = EDGE_LOOP ( 'NONE', ( #117 ) ) ;
#90 = DIRECTION ( 'NONE',  ( -3.491481338843133355E-15, 1.224646799147353207E-16, -1.000000000000000000 ) ) ;
#91 = EDGE_LOOP ( 'NONE', ( #86 ) ) ;
#92 = AXIS2_PLACEMENT_3D ( 'NONE', #56, #227, #7 ) ;
#93 = CARTESIAN_POINT ( 'NONE',  ( 1.047444401652940007E-13, 0.5999999999999963141, 30.00000000000000000 ) ) ;
#94 = PERSON_AND_ORGANIZATION ( #124, #214 ) ;
#95 = VERTEX_POINT ( 'NONE', #159 ) ;
#96 = APPLICATION_PROTOCOL_DEFINITION ( 'international standard', 'config_control_design', 1994, #82 ) ;
#97 = CALENDAR_DATE ( 2021, 16, 12 ) ;
#98 = CALENDAR_DATE ( 2021, 16, 12 ) ;
#99 = LOCAL_TIME ( 10, 22, 11.00000000000000000, #242 ) ;
#100 = APPROVAL ( #182, 'UNSPECIFIED' ) ;
#101 = EDGE_LOOP ( 'NONE', ( #18 ) ) ;
#102 = CARTESIAN_POINT ( 'NONE',  ( 2.260404474073794498E-14, -7.928431617709984555E-16, 6.474055722213186037 ) ) ;
#103 = CIRCLE ( 'NONE', #107, 0.7499999999999971134 ) ;
#104 = FACE_OUTER_BOUND ( 'NONE', #190, .T. ) ;
#105 = LOCAL_TIME ( 10, 22, 11.00000000000000000, #121 ) ;
#106 = DIRECTION ( 'NONE',  ( 0.0000000000000000000, 1.000000000000000000, 0.0000000000000000000 ) ) ;
#107 = AXIS2_PLACEMENT_3D ( 'NONE', #102, #187, #188 ) ;
#108 = ORIENTED_EDGE ( 'NONE', *, *, #84, .F. ) ;
#109 = VERTEX_POINT ( 'NONE', #135 ) ;
#110 = PRODUCT_DEFINITION_SHAPE ( 'NONE', 'NONE',  #258 ) ;
#111 = DIRECTION ( 'NONE',  ( 0.0000000000000000000, 1.000000000000000000, 0.0000000000000000000 ) ) ;
#112 = APPLICATION_PROTOCOL_DEFINITION ( 'international standard', 'config_control_design', 1994, #19 ) ;
#113 = CONICAL_SURFACE ( 'NONE', #191, 0.6000000000000000888, 0.7853981633974450594 ) ;
#114 =( LENGTH_UNIT ( ) NAMED_UNIT ( * ) SI_UNIT ( .MILLI., .METRE. ) );
#115 = EDGE_CURVE ( 'NONE', #138, #138, #85, .T. ) ;
#116 = CIRCLE ( 'NONE', #31, 0.7209999999999998632 ) ;
#117 = ORIENTED_EDGE ( 'NONE', *, *, #150, .F. ) ;
#118 = FACE_OUTER_BOUND ( 'NONE', #248, .T. ) ;
#119 = DATE_AND_TIME ( #81, #105 ) ;
#120 = CARTESIAN_POINT ( 'NONE',  ( 1.745740669421566678E-14, 5.406634016495986331E-33, 5.000000000000000000 ) ) ;
#121 = COORDINATED_UNIVERSAL_TIME_OFFSET ( 1, 0, .AHEAD. ) ;
#122 = TOROIDAL_SURFACE ( 'NONE', #241, 1.221000000000000085, 0.5000000000000000000 ) ;
#123 = CYLINDRICAL_SURFACE ( 'NONE', #230, 0.7499999999999984457 ) ;
#124 = PERSON ( 'UNSPECIFIED', 'UNSPECIFIED', 'UNSPECIFIED', ('UNSPECIFIED'), ('UNSPECIFIED'), ('UNSPECIFIED') ) ;
#125 = CC_DESIGN_PERSON_AND_ORGANIZATION_ASSIGNMENT ( #12, #13, ( #192 ) ) ;
#126 = EDGE_CURVE ( 'NONE', #95, #95, #147, .T. ) ;
#127 = FACE_OUTER_BOUND ( 'NONE', #167, .T. ) ;
#128 = FACE_BOUND ( 'NONE', #240, .T. ) ;
#129 = EDGE_CURVE ( 'NONE', #29, #29, #218, .T. ) ;
#130 = CARTESIAN_POINT ( 'NONE',  ( 1.745740669421566678E-14, 5.406634016495986331E-33, 5.000000000000000000 ) ) ;
#131 = AXIS2_PLACEMENT_3D ( 'NONE', #181, #217, #201 ) ;
#132 = PRODUCT ( '986900', '986900', '', ( #50 ) ) ;
#133 = CALENDAR_DATE ( 2021, 16, 12 ) ;
#134 = CC_DESIGN_DATE_AND_TIME_ASSIGNMENT ( #73, #163, ( #258 ) ) ;
#135 = CARTESIAN_POINT ( 'NONE',  ( 1.745740669421566678E-14, 0.7209999999999991971, 5.000000000000000000 ) ) ;
#136 = AXIS2_PLACEMENT_3D ( 'NONE', #235, #66, #61 ) ;
#137 = APPROVAL_ROLE ( '' ) ;
#138 = VERTEX_POINT ( 'NONE', #160 ) ;
#139 = ORIENTED_EDGE ( 'NONE', *, *, #150, .T. ) ;
#140 = APPROVAL_ROLE ( '' ) ;
#141 = DATE_AND_TIME ( #5, #99 ) ;
#142 = APPROVAL_STATUS ( 'not_yet_approved' ) ;
#143 = EDGE_LOOP ( 'NONE', ( #243 ) ) ;
#144 = ORIENTED_EDGE ( 'NONE', *, *, #245, .F. ) ;
#145 = FACE_OUTER_BOUND ( 'NONE', #274, .T. ) ;
#146 = DIRECTION ( 'NONE',  ( 4.275831445896958607E-31, 1.000000000000000000, 1.224646799147353207E-16 ) ) ;
#147 = CIRCLE ( 'NONE', #208, 0.7499999999999998890 ) ;
#148 = PERSON_AND_ORGANIZATION_ROLE ( 'design_supplier' ) ;
#149 = CC_DESIGN_PERSON_AND_ORGANIZATION_ASSIGNMENT ( #222, #30, ( #258 ) ) ;
#150 = EDGE_CURVE ( 'NONE', #238, #238, #21, .T. ) ;
#151 = CARTESIAN_POINT ( 'NONE',  ( 2.199633243471174014E-14, -8.673617379884035472E-16, 6.299999999999999822 ) ) ;
#152 = CARTESIAN_POINT ( 'NONE',  ( 1.047444401652940007E-13, -3.673940397442059178E-15, 30.00000000000000000 ) ) ;
#153 = ORIENTED_EDGE ( 'NONE', *, *, #115, .F. ) ;
#154 = DIRECTION ( 'NONE',  ( 4.275831445896958607E-31, 1.000000000000000000, 1.224646799147353207E-16 ) ) ;
#155 = CLOSED_SHELL ( 'NONE', ( #67, #228, #176, #35, #76, #25, #14 ) ) ;
#156 = CARTESIAN_POINT ( 'NONE',  ( 2.199633243471174014E-14, -7.715274834628325378E-16, 6.299999999999999822 ) ) ;
#157 = CARTESIAN_POINT ( 'NONE',  ( 2.199633243471174014E-14, 0.7209999999999991971, 6.299999999999999822 ) ) ;
#158 = APPROVAL_PERSON_ORGANIZATION ( #94, #100, #140 ) ;
#159 = CARTESIAN_POINT ( 'NONE',  ( 1.042207179644675275E-13, 0.7499999999999962252, 29.84999999999999787 ) ) ;
#160 = CARTESIAN_POINT ( 'NONE',  ( 1.745740669421566678E-14, 0.7209999999999991971, 5.000000000000000000 ) ) ;
#161 = DIRECTION ( 'NONE',  ( -3.491481338843133355E-15, 1.224646799147353207E-16, -1.000000000000000000 ) ) ;
#162 = EDGE_LOOP ( 'NONE', ( #153 ) ) ;
#163 = DATE_TIME_ROLE ( 'creation_date' ) ;
#164 = DIRECTION ( 'NONE',  ( -3.491481338843133355E-15, 1.224646799147353207E-16, -1.000000000000000000 ) ) ;
#165 = DIRECTION ( 'NONE',  ( 0.0000000000000000000, 1.000000000000000000, 0.0000000000000000000 ) ) ;
#166 = PERSON_AND_ORGANIZATION_ROLE ( 'classification_officer' ) ;
#167 = EDGE_LOOP ( 'NONE', ( #263 ) ) ;
#168 = FACE_BOUND ( 'NONE', #197, .T. ) ;
#169 = ADVANCED_FACE ( 'NONE', ( #128, #231 ), #186, .T. ) ;
#170 = LOCAL_TIME ( 10, 22, 11.00000000000000000, #46 ) ;
#171 = SECURITY_CLASSIFICATION_LEVEL ( 'unclassified' ) ;
#172 = DIRECTION ( 'NONE',  ( 0.0000000000000000000, 1.000000000000000000, 0.0000000000000000000 ) ) ;
#173 = AXIS2_PLACEMENT_3D ( 'NONE', #156, #90, #172 ) ;
#174 = CYLINDRICAL_SURFACE ( 'NONE', #62, 0.7209999999999998632 ) ;
#175 = EDGE_LOOP ( 'NONE', ( #63 ) ) ;
#176 = ADVANCED_FACE ( 'NONE', ( #256, #60 ), #122, .F. ) ;
#177 = CARTESIAN_POINT ( 'NONE',  ( 3.140322965808199806E-15, 0.7209999999999991971, 0.8994242446241208500 ) ) ;
#178 = ORIENTED_EDGE ( 'NONE', *, *, #55, .F. ) ;
#179 = APPROVAL ( #142, 'UNSPECIFIED' ) ;
#180 = EDGE_CURVE ( 'NONE', #43, #43, #26, .T. ) ;
#181 = CARTESIAN_POINT ( 'NONE',  ( 0.0000000000000000000, 0.0000000000000000000, 0.0000000000000000000 ) ) ;
#182 = APPROVAL_STATUS ( 'not_yet_approved' ) ;
#183 =( NAMED_UNIT ( * ) PLANE_ANGLE_UNIT ( ) SI_UNIT ( $, .RADIAN. ) );
#184 = DATE_AND_TIME ( #97, #20 ) ;
#185 = CC_DESIGN_APPROVAL ( #100, ( #236 ) ) ;
#186 = CONICAL_SURFACE ( 'NONE', #72, 0.7209999999999993081, 0.2617993877991429685 ) ;
#187 = DIRECTION ( 'NONE',  ( -3.491481338843133355E-15, 1.224646799147353207E-16, -1.000000000000000000 ) ) ;
#188 = DIRECTION ( 'NONE',  ( 0.0000000000000000000, 1.000000000000000000, 0.0000000000000000000 ) ) ;
#189 = AXIS2_PLACEMENT_3D ( 'NONE', #193, #212, #280 ) ;
#190 = EDGE_LOOP ( 'NONE', ( #51 ) ) ;
#191 = AXIS2_PLACEMENT_3D ( 'NONE', #275, #249, #165 ) ;
#192 = PRODUCT_DEFINITION_FORMATION_WITH_SPECIFIED_SOURCE ( 'ANY', '', #132, .NOT_KNOWN. ) ;
#193 = CARTESIAN_POINT ( 'NONE',  ( -7.896075687173746431E-32, 2.769570528286595433E-33, -2.261525960150206773E-17 ) ) ;
#194 = SHAPE_DEFINITION_REPRESENTATION ( #110, #70 ) ;
#195 = FACE_OUTER_BOUND ( 'NONE', #162, .T. ) ;
#196 = AXIS2_PLACEMENT_3D ( 'NONE', #40, #213, #27 ) ;
#197 = EDGE_LOOP ( 'NONE', ( #282 ) ) ;
#198 = CC_DESIGN_PERSON_AND_ORGANIZATION_ASSIGNMENT ( #8, #166, ( #236 ) ) ;
#199 = ADVANCED_FACE ( 'NONE', ( #127 ), #211, .T. ) ;
#200 = FACE_OUTER_BOUND ( 'NONE', #203, .T. ) ;
#201 = DIRECTION ( 'NONE',  ( 1.000000000000000000, 0.0000000000000000000, 0.0000000000000000000 ) ) ;
#202 = APPROVAL_DATE_TIME ( #141, #232 ) ;
#203 = EDGE_LOOP ( 'NONE', ( #33 ) ) ;
#204 = FACE_OUTER_BOUND ( 'NONE', #175, .T. ) ;
#205 = ADVANCED_FACE ( 'NONE', ( #210 ), #15, .F. ) ;
#206 = DIRECTION ( 'NONE',  ( 4.275831445896958607E-31, 1.000000000000000000, 1.224646799147353454E-16 ) ) ;
#207 = CARTESIAN_POINT ( 'NONE',  ( 0.0000000000000000000, 0.0000000000000000000, 0.0000000000000000000 ) ) ;
#208 = AXIS2_PLACEMENT_3D ( 'NONE', #32, #233, #106 ) ;
#209 = CONICAL_SURFACE ( 'NONE', #92, 0.7499999999999971134, 0.2617993877991468543 ) ;
#210 = FACE_OUTER_BOUND ( 'NONE', #257, .T. ) ;
#211 = PLANE ( 'NONE',  #283 ) ;
#212 = DIRECTION ( 'NONE',  ( 3.491481338843133355E-15, -1.224646799147353207E-16, 1.000000000000000000 ) ) ;
#213 = DIRECTION ( 'NONE',  ( -3.491481338843133355E-15, 1.224646799147353207E-16, -1.000000000000000000 ) ) ;
#214 = ORGANIZATION ( 'UNSPECIFIED', 'UNSPECIFIED', '' ) ;
#215 = DIRECTION ( 'NONE',  ( -3.491481338843133355E-15, 1.224646799147353207E-16, -1.000000000000000000 ) ) ;
#216 = DATE_AND_TIME ( #133, #170 ) ;
#217 = DIRECTION ( 'NONE',  ( 0.0000000000000000000, 0.0000000000000000000, 1.000000000000000000 ) ) ;
#218 = CIRCLE ( 'NONE', #173, 0.7209999999999999742 ) ;
#219 = PERSON_AND_ORGANIZATION ( #124, #214 ) ;
#220 = CARTESIAN_POINT ( 'NONE',  ( 1.745740669421566678E-14, -6.123233995736766282E-16, 5.000000000000000000 ) ) ;
#221 = EDGE_LOOP ( 'NONE', ( #260 ) ) ;
#222 = PERSON_AND_ORGANIZATION ( #124, #214 ) ;
#223 = AXIS2_PLACEMENT_3D ( 'NONE', #34, #57, #226 ) ;
#224 = PLANE ( 'NONE',  #39 ) ;
#225 = CC_DESIGN_APPROVAL ( #232, ( #258 ) ) ;
#226 = DIRECTION ( 'NONE',  ( 5.342385421323821257E-31, 1.000000000000000000, 1.503747812046470730E-16 ) ) ;
#227 = DIRECTION ( 'NONE',  ( 3.491481338843133355E-15, -1.224646799147353207E-16, 1.000000000000000000 ) ) ;
#228 = ADVANCED_FACE ( 'NONE', ( #195, #281 ), #174, .T. ) ;
#229 = FACE_BOUND ( 'NONE', #89, .T. ) ;
#230 = AXIS2_PLACEMENT_3D ( 'NONE', #207, #9, #206 ) ;
#231 = FACE_OUTER_BOUND ( 'NONE', #91, .T. ) ;
#232 = APPROVAL ( #269, 'UNSPECIFIED' ) ;
#233 = DIRECTION ( 'NONE',  ( -3.491481338843133355E-15, 1.224646799147353207E-16, -1.000000000000000000 ) ) ;
#234 = EDGE_LOOP ( 'NONE', ( #178 ) ) ;
#235 = CARTESIAN_POINT ( 'NONE',  ( 2.244816336776805305E-14, -7.873755792199909958E-16, 6.429409522551257083 ) ) ;
#236 = SECURITY_CLASSIFICATION ( '', '', #171 ) ;
#237 = CARTESIAN_POINT ( 'NONE',  ( 2.244816336776805305E-14, 0.7380370868554638752, 6.429409522551257083 ) ) ;
#238 = VERTEX_POINT ( 'NONE', #237 ) ;
#239 = FACE_OUTER_BOUND ( 'NONE', #234, .T. ) ;
#240 = EDGE_LOOP ( 'NONE', ( #144 ) ) ;
#241 = AXIS2_PLACEMENT_3D ( 'NONE', #151, #261, #38 ) ;
#242 = COORDINATED_UNIVERSAL_TIME_OFFSET ( 1, 0, .AHEAD. ) ;
#243 = ORIENTED_EDGE ( 'NONE', *, *, #84, .T. ) ;
#244 = PERSON_AND_ORGANIZATION ( #124, #214 ) ;
#245 = EDGE_CURVE ( 'NONE', #47, #47, #37, .T. ) ;
#246 = DIRECTION ( 'NONE',  ( 0.0000000000000000000, 1.000000000000000000, 0.0000000000000000000 ) ) ;
#247 = AXIS2_PLACEMENT_3D ( 'NONE', #77, #79, #146 ) ;
#248 = EDGE_LOOP ( 'NONE', ( #49 ) ) ;
#249 = DIRECTION ( 'NONE',  ( -3.491481338843133355E-15, 1.224646799147353207E-16, -1.000000000000000000 ) ) ;
#250 = FACE_OUTER_BOUND ( 'NONE', #143, .T. ) ;
#251 = APPROVAL_PERSON_ORGANIZATION ( #4, #232, #71 ) ;
#252 = DIRECTION ( 'NONE',  ( -4.275831445896958607E-31, -1.000000000000000000, -1.224646799147353207E-16 ) ) ;
#253 = PRODUCT_RELATED_PRODUCT_CATEGORY ( 'detail', '', ( #132 ) ) ;
#254 = EDGE_CURVE ( 'NONE', #109, #109, #116, .T. ) ;
#255 = ADVANCED_FACE ( 'NONE', ( #239, #200 ), #3, .T. ) ;
#256 = FACE_OUTER_BOUND ( 'NONE', #101, .T. ) ;
#257 = EDGE_LOOP ( 'NONE', ( #272 ) ) ;
#258 = PRODUCT_DEFINITION ( 'UNKNOWN', '', #192, #87 ) ;
#259 = CARTESIAN_POINT ( 'NONE',  ( 0.0000000000000000000, 0.0000000000000000000, 0.0000000000000000000 ) ) ;
#260 = ORIENTED_EDGE ( 'NONE', *, *, #129, .T. ) ;
#261 = DIRECTION ( 'NONE',  ( -3.491481338843133355E-15, 1.224646799147353207E-16, -1.000000000000000000 ) ) ;
#262 = CARTESIAN_POINT ( 'NONE',  ( 2.260404474073794498E-14, 0.7499999999999963363, 6.474055722213186037 ) ) ;
#263 = ORIENTED_EDGE ( 'NONE', *, *, #254, .F. ) ;
#264 = CC_DESIGN_APPROVAL ( #179, ( #192 ) ) ;
#265 = DIRECTION ( 'NONE',  ( 4.275831445896958607E-31, 1.000000000000000000, 1.224646799147353207E-16 ) ) ;
#266 = VERTEX_POINT ( 'NONE', #177 ) ;
#267 = COORDINATED_UNIVERSAL_TIME_OFFSET ( 1, 0, .AHEAD. ) ;
#268 = MANIFOLD_SOLID_BREP ( 'Corps-Déplacer/Copier1[2]', #277 ) ;
#269 = APPROVAL_STATUS ( 'not_yet_approved' ) ;
#270 = AXIS2_PLACEMENT_3D ( 'NONE', #74, #164, #246 ) ;
#271 = PERSON_AND_ORGANIZATION_ROLE ( 'design_owner' ) ;
#272 = ORIENTED_EDGE ( 'NONE', *, *, #245, .T. ) ;
#273 = DIRECTION ( 'NONE',  ( 3.491481338843133355E-15, -1.224646799147353207E-16, 1.000000000000000000 ) ) ;
#274 = EDGE_LOOP ( 'NONE', ( #65 ) ) ;
#275 = CARTESIAN_POINT ( 'NONE',  ( 1.047444401652940007E-13, -3.673940397442059178E-15, 30.00000000000000000 ) ) ;
#276 = APPROVAL_DATE_TIME ( #119, #179 ) ;
#277 = CLOSED_SHELL ( 'NONE', ( #205, #169, #255, #199 ) ) ;
#278 = AXIS2_PLACEMENT_3D ( 'NONE', #68, #161, #265 ) ;
#279 = CARTESIAN_POINT ( 'NONE',  ( 3.140322965808199412E-15, -1.101477022254455602E-16, 0.8994242446241207389 ) ) ;
#280 = DIRECTION ( 'NONE',  ( -4.275831445896958607E-31, -1.000000000000000000, -1.224646799147353207E-16 ) ) ;
#281 = FACE_OUTER_BOUND ( 'NONE', #221, .T. ) ;
#282 = ORIENTED_EDGE ( 'NONE', *, *, #180, .T. ) ;
#283 = AXIS2_PLACEMENT_3D ( 'NONE', #130, #22, #252 ) ;
ENDSEC;
END-ISO-10303-21;
