ISO-10303-21;
HEADER;
FILE_DESCRIPTION (( 'STEP AP203' ),
    '1' );
FILE_NAME ('986899.step',
    '2021-12-16T09:22:10',
    ( '' ),
    ( '' ),
    'SwSTEP 2.0',
    'SolidWorks 2019',
    '' );
FILE_SCHEMA (( 'CONFIG_CONTROL_DESIGN' ));
ENDSEC;

DATA;
#1 = EDGE_LOOP ( 'NONE', ( #21 ) ) ;
#2 = CYLINDRICAL_SURFACE ( 'NONE', #82, 0.7499999999999984457 ) ;
#3 = FACE_OUTER_BOUND ( 'NONE', #195, .T. ) ;
#4 = ADVANCED_FACE ( 'NONE', ( #46, #3 ), #247, .T. ) ;
#5 = CARTESIAN_POINT ( 'NONE',  ( 1.745740669421566678E-14, 4.634257728425130456E-33, 5.000000000000000000 ) ) ;
#6 = AXIS2_PLACEMENT_3D ( 'NONE', #134, #81, #56 ) ;
#7 = DIRECTION ( 'NONE',  ( 0.0000000000000000000, 1.000000000000000000, 0.0000000000000000000 ) ) ;
#8 = PERSON_AND_ORGANIZATION ( #142, #165 ) ;
#9 = FACE_OUTER_BOUND ( 'NONE', #218, .T. ) ;
#10 = PERSON_AND_ORGANIZATION ( #142, #165 ) ;
#11 = DIRECTION ( 'NONE',  ( 0.0000000000000000000, 1.000000000000000000, 0.0000000000000000000 ) ) ;
#12 = CIRCLE ( 'NONE', #77, 0.6179999999999994387 ) ;
#13 = COORDINATED_UNIVERSAL_TIME_OFFSET ( 1, 0, .AHEAD. ) ;
#14 = AXIS2_PLACEMENT_3D ( 'NONE', #91, #175, #70 ) ;
#15 = DESIGN_CONTEXT ( 'detailed design', #127, 'design' ) ;
#16 = CALENDAR_DATE ( 2021, 16, 12 ) ;
#17 = EDGE_LOOP ( 'NONE', ( #263 ) ) ;
#18 = EDGE_CURVE ( 'NONE', #114, #114, #268, .T. ) ;
#19 = PERSON_AND_ORGANIZATION_ROLE ( 'creator' ) ;
#20 = CC_DESIGN_APPROVAL ( #33, ( #180 ) ) ;
#21 = ORIENTED_EDGE ( 'NONE', *, *, #111, .F. ) ;
#22 = DIRECTION ( 'NONE',  ( -3.491481338843133355E-15, 1.224646799147353207E-16, -1.000000000000000000 ) ) ;
#23 = COORDINATED_UNIVERSAL_TIME_OFFSET ( 1, 0, .AHEAD. ) ;
#24 = EDGE_LOOP ( 'NONE', ( #181 ) ) ;
#25 = FACE_OUTER_BOUND ( 'NONE', #24, .T. ) ;
#26 = CONICAL_SURFACE ( 'NONE', #189, 0.7499999999999972244, 0.2617993877991433016 ) ;
#27 = CONICAL_SURFACE ( 'NONE', #184, 0.6179999999999994387, 0.2617993877991430796 ) ;
#28 = CC_DESIGN_PERSON_AND_ORGANIZATION_ASSIGNMENT ( #48, #280, ( #180 ) ) ;
#29 = CARTESIAN_POINT ( 'NONE',  ( 1.042207179644675275E-13, -3.655570695454848748E-15, 29.84999999999999787 ) ) ;
#30 = PRODUCT ( '986899', '986899', '', ( #86 ) ) ;
#31 = CARTESIAN_POINT ( 'NONE',  ( 1.745740669421566678E-14, 0.6179999999999993276, 5.000000000000000000 ) ) ;
#32 = CIRCLE ( 'NONE', #50, 0.6180000000000001048 ) ;
#33 = APPROVAL ( #226, 'UNSPECIFIED' ) ;
#34 = DIRECTION ( 'NONE',  ( -3.491481338843133355E-15, 1.224646799147353207E-16, -1.000000000000000000 ) ) ;
#35 = DIRECTION ( 'NONE',  ( 3.491481338843133355E-15, -1.224646799147353207E-16, 1.000000000000000000 ) ) ;
#36 = APPROVAL_ROLE ( '' ) ;
#37 = DIRECTION ( 'NONE',  ( -4.275831445896958607E-31, -1.000000000000000000, -1.224646799147353207E-16 ) ) ;
#38 = APPROVAL_STATUS ( 'not_yet_approved' ) ;
#39 = CARTESIAN_POINT ( 'NONE',  ( 2.164718430082742680E-14, 0.6179999999999993276, 6.200000000000000178 ) ) ;
#40 = DIRECTION ( 'NONE',  ( 0.0000000000000000000, 1.000000000000000000, 0.0000000000000000000 ) ) ;
#41 = COORDINATED_UNIVERSAL_TIME_OFFSET ( 1, 0, .AHEAD. ) ;
#42 = EDGE_LOOP ( 'NONE', ( #163 ) ) ;
#43 = CARTESIAN_POINT ( 'NONE',  ( 2.359702633912850181E-14, -8.276722677596945710E-16, 6.758456955392789567 ) ) ;
#44 = APPROVAL ( #38, 'UNSPECIFIED' ) ;
#45 = ADVANCED_FACE ( 'NONE', ( #25, #96 ), #2, .T. ) ;
#46 = FACE_OUTER_BOUND ( 'NONE', #242, .T. ) ;
#47 = DIRECTION ( 'NONE',  ( -3.491481338843133355E-15, 1.224646799147353207E-16, -1.000000000000000000 ) ) ;
#48 = PERSON_AND_ORGANIZATION ( #142, #165 ) ;
#49 = DATE_AND_TIME ( #122, #212 ) ;
#50 = AXIS2_PLACEMENT_3D ( 'NONE', #186, #135, #214 ) ;
#51 = AXIS2_PLACEMENT_3D ( 'NONE', #267, #241, #40 ) ;
#52 = PRODUCT_DEFINITION_FORMATION_WITH_SPECIFIED_SOURCE ( 'ANY', '', #30, .NOT_KNOWN. ) ;
#53 = VERTEX_POINT ( 'NONE', #147 ) ;
#54 = CARTESIAN_POINT ( 'NONE',  ( 2.209901523388373656E-14, 0.6350370868554640058, 6.329409522551255662 ) ) ;
#55 = PERSON_AND_ORGANIZATION ( #142, #165 ) ;
#56 = DIRECTION ( 'NONE',  ( 0.0000000000000000000, 1.000000000000000000, 0.0000000000000000000 ) ) ;
#57 = CIRCLE ( 'NONE', #245, 0.4149999999999999245 ) ;
#58 = DIRECTION ( 'NONE',  ( -3.491481338843133355E-15, 1.224646799147353207E-16, -1.000000000000000000 ) ) ;
#59 = CARTESIAN_POINT ( 'NONE',  ( 0.0000000000000000000, 0.0000000000000000000, 0.0000000000000000000 ) ) ;
#60 = CARTESIAN_POINT ( 'NONE',  ( 1.745740669421566678E-14, 4.634257728425130456E-33, 5.000000000000000000 ) ) ;
#61 = UNCERTAINTY_MEASURE_WITH_UNIT (LENGTH_MEASURE( 1.000000000000000082E-05 ), #240, 'distance_accuracy_value', 'NONE');
#62 = DIRECTION ( 'NONE',  ( 1.000000000000000000, 0.0000000000000000000, 0.0000000000000000000 ) ) ;
#63 = CC_DESIGN_PERSON_AND_ORGANIZATION_ASSIGNMENT ( #88, #19, ( #52 ) ) ;
#64 = VERTEX_POINT ( 'NONE', #39 ) ;
#65 = AXIS2_PLACEMENT_3D ( 'NONE', #59, #277, #62 ) ;
#66 = ORIENTED_EDGE ( 'NONE', *, *, #97, .F. ) ;
#67 = ORIENTED_EDGE ( 'NONE', *, *, #18, .F. ) ;
#68 = APPROVAL_ROLE ( '' ) ;
#69 = ORIENTED_EDGE ( 'NONE', *, *, #177, .F. ) ;
#70 = DIRECTION ( 'NONE',  ( 4.275831445896958607E-31, 1.000000000000000000, 1.224646799147353207E-16 ) ) ;
#71 = SHAPE_DEFINITION_REPRESENTATION ( #217, #171 ) ;
#72 = EDGE_LOOP ( 'NONE', ( #123 ) ) ;
#73 = CARTESIAN_POINT ( 'NONE',  ( 0.0000000000000000000, 0.0000000000000000000, 0.0000000000000000000 ) ) ;
#74 = DIRECTION ( 'NONE',  ( -3.491481338843133355E-15, 1.224646799147353207E-16, -1.000000000000000000 ) ) ;
#75 = ORIENTED_EDGE ( 'NONE', *, *, #105, .T. ) ;
#76 = ADVANCED_FACE ( 'NONE', ( #98, #266 ), #26, .T. ) ;
#77 = AXIS2_PLACEMENT_3D ( 'NONE', #221, #138, #120 ) ;
#78 = CARTESIAN_POINT ( 'NONE',  ( 1.042207179644675275E-13, 0.7499999999999962252, 29.84999999999999787 ) ) ;
#79 = ADVANCED_FACE ( 'NONE', ( #246, #157 ), #179, .T. ) ;
#80 = PLANE ( 'NONE',  #112 ) ;
#81 = DIRECTION ( 'NONE',  ( -3.491481338843133355E-15, 1.224646799147353207E-16, -1.000000000000000000 ) ) ;
#82 = AXIS2_PLACEMENT_3D ( 'NONE', #243, #222, #125 ) ;
#83 = AXIS2_PLACEMENT_3D ( 'NONE', #60, #238, #37 ) ;
#84 = PLANE ( 'NONE',  #83 ) ;
#85 = CC_DESIGN_DATE_AND_TIME_ASSIGNMENT ( #231, #137, ( #256 ) ) ;
#86 = MECHANICAL_CONTEXT ( 'NONE', #162, 'mechanical' ) ;
#87 = CARTESIAN_POINT ( 'NONE',  ( 4.731839565957903391E-32, 0.4149999999999999245, 1.355252715606880543E-17 ) ) ;
#88 = PERSON_AND_ORGANIZATION ( #142, #165 ) ;
#89 = CC_DESIGN_SECURITY_CLASSIFICATION ( #180, ( #52 ) ) ;
#90 = APPROVAL ( #107, 'UNSPECIFIED' ) ;
#91 = CARTESIAN_POINT ( 'NONE',  ( 1.047444401652940007E-13, 4.499279347985518085E-33, 30.00000000000000000 ) ) ;
#92 = PERSON_AND_ORGANIZATION ( #142, #165 ) ;
#93 = DIRECTION ( 'NONE',  ( 4.275831445896958607E-31, 1.000000000000000000, 1.224646799147352961E-16 ) ) ;
#94 = APPROVAL_DATE_TIME ( #223, #33 ) ;
#95 = ORIENTED_EDGE ( 'NONE', *, *, #278, .T. ) ;
#96 = FACE_OUTER_BOUND ( 'NONE', #264, .T. ) ;
#97 = EDGE_CURVE ( 'NONE', #251, #251, #12, .T. ) ;
#98 = FACE_BOUND ( 'NONE', #259, .T. ) ;
#99 = AXIS2_PLACEMENT_3D ( 'NONE', #248, #74, #225 ) ;
#100 =( GEOMETRIC_REPRESENTATION_CONTEXT ( 3 ) GLOBAL_UNCERTAINTY_ASSIGNED_CONTEXT ( ( #61 ) ) GLOBAL_UNIT_ASSIGNED_CONTEXT ( ( #240, #274, #172 ) ) REPRESENTATION_CONTEXT ( 'NONE', 'WORKASPACE' ) );
#101 = EDGE_CURVE ( 'NONE', #167, #167, #57, .T. ) ;
#102 = ADVANCED_FACE ( 'NONE', ( #197 ), #279, .F. ) ;
#103 = CC_DESIGN_APPROVAL ( #44, ( #256 ) ) ;
#104 = CARTESIAN_POINT ( 'NONE',  ( 2.645168307299020188E-15, -9.278001473761587549E-17, 0.7576063139364993537 ) ) ;
#105 = EDGE_CURVE ( 'NONE', #53, #53, #160, .T. ) ;
#106 = VERTEX_POINT ( 'NONE', #54 ) ;
#107 = APPROVAL_STATUS ( 'not_yet_approved' ) ;
#108 = FACE_OUTER_BOUND ( 'NONE', #283, .T. ) ;
#109 = COORDINATED_UNIVERSAL_TIME_OFFSET ( 1, 0, .AHEAD. ) ;
#110 = DIRECTION ( 'NONE',  ( 4.275831445896958607E-31, 1.000000000000000000, 1.224646799147353207E-16 ) ) ;
#111 = EDGE_CURVE ( 'NONE', #270, #270, #190, .T. ) ;
#112 = AXIS2_PLACEMENT_3D ( 'NONE', #271, #129, #151 ) ;
#113 = COORDINATED_UNIVERSAL_TIME_OFFSET ( 1, 0, .AHEAD. ) ;
#114 = VERTEX_POINT ( 'NONE', #192 ) ;
#115 = DATE_AND_TIME ( #16, #196 ) ;
#116 = PERSON_AND_ORGANIZATION ( #142, #165 ) ;
#117 = DIRECTION ( 'NONE',  ( 4.275831445896958607E-31, 1.000000000000000000, 1.224646799147353207E-16 ) ) ;
#118 = CIRCLE ( 'NONE', #228, 0.6179999999999999938 ) ;
#119 = ORIENTED_EDGE ( 'NONE', *, *, #97, .T. ) ;
#120 = DIRECTION ( 'NONE',  ( 6.232782991544458571E-31, 1.000000000000000000, 1.754372447387549309E-16 ) ) ;
#121 = EDGE_LOOP ( 'NONE', ( #200 ) ) ;
#122 = CALENDAR_DATE ( 2021, 16, 12 ) ;
#123 = ORIENTED_EDGE ( 'NONE', *, *, #101, .T. ) ;
#124 = APPROVAL_PERSON_ORGANIZATION ( #10, #90, #36 ) ;
#125 = DIRECTION ( 'NONE',  ( 4.275831445896958607E-31, 1.000000000000000000, 1.224646799147353454E-16 ) ) ;
#126 = CC_DESIGN_PERSON_AND_ORGANIZATION_ASSIGNMENT ( #210, #215, ( #256 ) ) ;
#127 = APPLICATION_CONTEXT ( 'configuration controlled 3d designs of mechanical parts and assemblies' ) ;
#128 = AXIS2_PLACEMENT_3D ( 'NONE', #29, #252, #150 ) ;
#129 = DIRECTION ( 'NONE',  ( 3.491481338843133355E-15, -1.224646799147353207E-16, 1.000000000000000000 ) ) ;
#130 = VERTEX_POINT ( 'NONE', #208 ) ;
#131 = FACE_OUTER_BOUND ( 'NONE', #182, .T. ) ;
#132 = APPLICATION_PROTOCOL_DEFINITION ( 'international standard', 'config_control_design', 1994, #162 ) ;
#133 = EDGE_CURVE ( 'NONE', #106, #106, #204, .T. ) ;
#134 = CARTESIAN_POINT ( 'NONE',  ( 2.359702633912850181E-14, -8.276722677596945710E-16, 6.758456955392789567 ) ) ;
#135 = DIRECTION ( 'NONE',  ( -3.491481338843133355E-15, 1.224646799147353207E-16, -1.000000000000000000 ) ) ;
#136 = CALENDAR_DATE ( 2021, 16, 12 ) ;
#137 = DATE_TIME_ROLE ( 'creation_date' ) ;
#138 = DIRECTION ( 'NONE',  ( -3.491481338843133355E-15, 1.224646799147353207E-16, -1.000000000000000000 ) ) ;
#139 = CARTESIAN_POINT ( 'NONE',  ( 1.745740669421566678E-14, -6.123233995736766282E-16, 5.000000000000000000 ) ) ;
#140 = SECURITY_CLASSIFICATION_LEVEL ( 'unclassified' ) ;
#141 = LOCAL_TIME ( 10, 22, 10.00000000000000000, #41 ) ;
#142 = PERSON ( 'UNSPECIFIED', 'UNSPECIFIED', 'UNSPECIFIED', ('UNSPECIFIED'), ('UNSPECIFIED'), ('UNSPECIFIED') ) ;
#143 = DATE_TIME_ROLE ( 'classification_date' ) ;
#144 = ORIENTED_EDGE ( 'NONE', *, *, #133, .T. ) ;
#145 = APPROVAL_PERSON_ORGANIZATION ( #92, #33, #68 ) ;
#146 = ADVANCED_FACE ( 'NONE', ( #152, #9 ), #27, .T. ) ;
#147 = CARTESIAN_POINT ( 'NONE',  ( 1.745740669421566678E-14, 0.6179999999999993276, 5.000000000000000000 ) ) ;
#148 = DIRECTION ( 'NONE',  ( -4.275831445896958607E-31, -1.000000000000000000, -1.224646799147353207E-16 ) ) ;
#149 = DATE_AND_TIME ( #136, #207 ) ;
#150 = DIRECTION ( 'NONE',  ( 0.0000000000000000000, 1.000000000000000000, 0.0000000000000000000 ) ) ;
#151 = DIRECTION ( 'NONE',  ( -4.275831445896958607E-31, -1.000000000000000000, -1.224646799147353207E-16 ) ) ;
#152 = FACE_BOUND ( 'NONE', #42, .T. ) ;
#153 = PERSON_AND_ORGANIZATION_ROLE ( 'design_owner' ) ;
#154 = CC_DESIGN_APPROVAL ( #90, ( #52 ) ) ;
#155 = ADVANCED_FACE ( 'NONE', ( #108, #187 ), #255, .T. ) ;
#156 = ORIENTED_EDGE ( 'NONE', *, *, #105, .F. ) ;
#157 = FACE_BOUND ( 'NONE', #17, .T. ) ;
#158 = ORIENTED_EDGE ( 'NONE', *, *, #177, .T. ) ;
#159 = CARTESIAN_POINT ( 'NONE',  ( -1.301286093451447126E-31, 4.564297197842983831E-33, -3.727031500854634491E-17 ) ) ;
#160 = CIRCLE ( 'NONE', #202, 0.6179999999999999938 ) ;
#161 = DIRECTION ( 'NONE',  ( 0.0000000000000000000, -1.000000000000000000, 0.0000000000000000000 ) ) ;
#162 = APPLICATION_CONTEXT ( 'configuration controlled 3d designs of mechanical parts and assemblies' ) ;
#163 = ORIENTED_EDGE ( 'NONE', *, *, #101, .F. ) ;
#164 = CLOSED_SHELL ( 'NONE', ( #273, #4, #237, #76, #45, #79, #102 ) ) ;
#165 = ORGANIZATION ( 'UNSPECIFIED', 'UNSPECIFIED', '' ) ;
#166 = FACE_OUTER_BOUND ( 'NONE', #220, .T. ) ;
#167 = VERTEX_POINT ( 'NONE', #87 ) ;
#168 = CARTESIAN_POINT ( 'NONE',  ( 0.0000000000000000000, 0.0000000000000000000, 0.0000000000000000000 ) ) ;
#169 = APPROVAL_DATE_TIME ( #149, #44 ) ;
#170 = CARTESIAN_POINT ( 'NONE',  ( 2.645168307299020582E-15, 0.6179999999999993276, 0.7576063139364994647 ) ) ;
#171 = ADVANCED_BREP_SHAPE_REPRESENTATION ( '986899', ( #281, #282, #65 ), #100 ) ;
#172 =( NAMED_UNIT ( * ) SI_UNIT ( $, .STERADIAN. ) SOLID_ANGLE_UNIT ( ) );
#173 = ORIENTED_EDGE ( 'NONE', *, *, #111, .T. ) ;
#174 = AXIS2_PLACEMENT_3D ( 'NONE', #5, #233, #148 ) ;
#175 = DIRECTION ( 'NONE',  ( -3.491481338843133355E-15, 1.224646799147353207E-16, -1.000000000000000000 ) ) ;
#176 = EDGE_LOOP ( 'NONE', ( #67 ) ) ;
#177 = EDGE_CURVE ( 'NONE', #230, #230, #118, .T. ) ;
#178 = EDGE_LOOP ( 'NONE', ( #158 ) ) ;
#179 = CONICAL_SURFACE ( 'NONE', #51, 0.6000000000000000888, 0.7853981633974450594 ) ;
#180 = SECURITY_CLASSIFICATION ( '', '', #140 ) ;
#181 = ORIENTED_EDGE ( 'NONE', *, *, #227, .F. ) ;
#182 = EDGE_LOOP ( 'NONE', ( #203 ) ) ;
#183 = DIRECTION ( 'NONE',  ( 0.0000000000000000000, 1.000000000000000000, 0.0000000000000000000 ) ) ;
#184 = AXIS2_PLACEMENT_3D ( 'NONE', #104, #35, #275 ) ;
#185 = CIRCLE ( 'NONE', #6, 0.7499999999999972244 ) ;
#186 = CARTESIAN_POINT ( 'NONE',  ( 2.164718430082742680E-14, -7.592810154713589835E-16, 6.200000000000000178 ) ) ;
#187 = FACE_OUTER_BOUND ( 'NONE', #201, .T. ) ;
#188 = DIRECTION ( 'NONE',  ( 4.275831445896957731E-31, 1.000000000000000000, 1.224646799147353207E-16 ) ) ;
#189 = AXIS2_PLACEMENT_3D ( 'NONE', #43, #260, #161 ) ;
#190 = CIRCLE ( 'NONE', #128, 0.7499999999999998890 ) ;
#191 = FACE_OUTER_BOUND ( 'NONE', #178, .T. ) ;
#192 = CARTESIAN_POINT ( 'NONE',  ( 1.047444401652940007E-13, 0.5999999999999963141, 30.00000000000000000 ) ) ;
#193 = APPROVAL_DATE_TIME ( #115, #90 ) ;
#194 = CALENDAR_DATE ( 2021, 16, 12 ) ;
#195 = EDGE_LOOP ( 'NONE', ( #95 ) ) ;
#196 = LOCAL_TIME ( 10, 22, 10.00000000000000000, #113 ) ;
#197 = FACE_OUTER_BOUND ( 'NONE', #176, .T. ) ;
#198 = CC_DESIGN_DATE_AND_TIME_ASSIGNMENT ( #49, #143, ( #180 ) ) ;
#199 = EDGE_LOOP ( 'NONE', ( #144 ) ) ;
#200 = ORIENTED_EDGE ( 'NONE', *, *, #227, .T. ) ;
#201 = EDGE_LOOP ( 'NONE', ( #75 ) ) ;
#202 = AXIS2_PLACEMENT_3D ( 'NONE', #139, #22, #183 ) ;
#203 = ORIENTED_EDGE ( 'NONE', *, *, #278, .F. ) ;
#204 = CIRCLE ( 'NONE', #258, 0.6350370868554647830 ) ;
#205 = PLANE ( 'NONE',  #174 ) ;
#206 = CLOSED_SHELL ( 'NONE', ( #224, #146, #155, #250 ) ) ;
#207 = LOCAL_TIME ( 10, 22, 10.00000000000000000, #13 ) ;
#208 = CARTESIAN_POINT ( 'NONE',  ( 2.359702633912850181E-14, 0.7499999999999963363, 6.758456955392789567 ) ) ;
#209 = CARTESIAN_POINT ( 'NONE',  ( 2.209901523388373656E-14, -7.751291112285172443E-16, 6.329409522551255662 ) ) ;
#210 = PERSON_AND_ORGANIZATION ( #142, #165 ) ;
#211 = CARTESIAN_POINT ( 'NONE',  ( 2.164718430082742365E-14, -8.673617379884035472E-16, 6.199999999999999289 ) ) ;
#212 = LOCAL_TIME ( 10, 22, 10.00000000000000000, #23 ) ;
#213 = PRODUCT_RELATED_PRODUCT_CATEGORY ( 'detail', '', ( #30 ) ) ;
#214 = DIRECTION ( 'NONE',  ( 0.0000000000000000000, 1.000000000000000000, 0.0000000000000000000 ) ) ;
#215 = PERSON_AND_ORGANIZATION_ROLE ( 'creator' ) ;
#216 = DIRECTION ( 'NONE',  ( -3.491481338843133355E-15, 1.224646799147353207E-16, -1.000000000000000000 ) ) ;
#217 = PRODUCT_DEFINITION_SHAPE ( 'NONE', 'NONE',  #256 ) ;
#218 = EDGE_LOOP ( 'NONE', ( #119 ) ) ;
#219 = AXIS2_PLACEMENT_3D ( 'NONE', #211, #34, #110 ) ;
#220 = EDGE_LOOP ( 'NONE', ( #156 ) ) ;
#221 = CARTESIAN_POINT ( 'NONE',  ( 2.645168307299020188E-15, -9.278001473761587549E-17, 0.7576063139364993537 ) ) ;
#222 = DIRECTION ( 'NONE',  ( -3.491481338843133355E-15, 1.224646799147353207E-16, -1.000000000000000000 ) ) ;
#223 = DATE_AND_TIME ( #262, #141 ) ;
#224 = ADVANCED_FACE ( 'NONE', ( #257 ), #80, .F. ) ;
#225 = DIRECTION ( 'NONE',  ( 0.0000000000000000000, 1.000000000000000000, 0.0000000000000000000 ) ) ;
#226 = APPROVAL_STATUS ( 'not_yet_approved' ) ;
#227 = EDGE_CURVE ( 'NONE', #130, #130, #185, .T. ) ;
#228 = AXIS2_PLACEMENT_3D ( 'NONE', #229, #272, #11 ) ;
#229 = CARTESIAN_POINT ( 'NONE',  ( 1.745740669421566678E-14, -6.123233995736766282E-16, 5.000000000000000000 ) ) ;
#230 = VERTEX_POINT ( 'NONE', #31 ) ;
#231 = DATE_AND_TIME ( #194, #239 ) ;
#232 = AXIS2_PLACEMENT_3D ( 'NONE', #73, #47, #93 ) ;
#233 = DIRECTION ( 'NONE',  ( 3.491481338843133355E-15, -1.224646799147353207E-16, 1.000000000000000000 ) ) ;
#234 = DIRECTION ( 'NONE',  ( -3.491481338843133355E-15, 1.224646799147353207E-16, -1.000000000000000000 ) ) ;
#235 = APPROVAL_ROLE ( '' ) ;
#236 = CC_DESIGN_PERSON_AND_ORGANIZATION_ASSIGNMENT ( #8, #153, ( #30 ) ) ;
#237 = ADVANCED_FACE ( 'NONE', ( #131, #276 ), #265, .F. ) ;
#238 = DIRECTION ( 'NONE',  ( 3.491481338843133355E-15, -1.224646799147353207E-16, 1.000000000000000000 ) ) ;
#239 = LOCAL_TIME ( 10, 22, 10.00000000000000000, #109 ) ;
#240 =( LENGTH_UNIT ( ) NAMED_UNIT ( * ) SI_UNIT ( .MILLI., .METRE. ) );
#241 = DIRECTION ( 'NONE',  ( -3.491481338843133355E-15, 1.224646799147353207E-16, -1.000000000000000000 ) ) ;
#242 = EDGE_LOOP ( 'NONE', ( #69 ) ) ;
#243 = CARTESIAN_POINT ( 'NONE',  ( 0.0000000000000000000, 0.0000000000000000000, 0.0000000000000000000 ) ) ;
#244 = PERSON_AND_ORGANIZATION_ROLE ( 'design_supplier' ) ;
#245 = AXIS2_PLACEMENT_3D ( 'NONE', #159, #216, #117 ) ;
#246 = FACE_OUTER_BOUND ( 'NONE', #1, .T. ) ;
#247 = CYLINDRICAL_SURFACE ( 'NONE', #232, 0.6180000000000001048 ) ;
#248 = CARTESIAN_POINT ( 'NONE',  ( 1.047444401652940007E-13, -3.673940397442059178E-15, 30.00000000000000000 ) ) ;
#249 = APPROVAL_PERSON_ORGANIZATION ( #55, #44, #235 ) ;
#250 = ADVANCED_FACE ( 'NONE', ( #166 ), #205, .T. ) ;
#251 = VERTEX_POINT ( 'NONE', #170 ) ;
#252 = DIRECTION ( 'NONE',  ( -3.491481338843133355E-15, 1.224646799147353207E-16, -1.000000000000000000 ) ) ;
#253 = APPLICATION_PROTOCOL_DEFINITION ( 'international standard', 'config_control_design', 1994, #127 ) ;
#254 = AXIS2_PLACEMENT_3D ( 'NONE', #168, #58, #188 ) ;
#255 = CYLINDRICAL_SURFACE ( 'NONE', #254, 0.6179999999999996607 ) ;
#256 = PRODUCT_DEFINITION ( 'UNKNOWN', '', #52, #15 ) ;
#257 = FACE_OUTER_BOUND ( 'NONE', #72, .T. ) ;
#258 = AXIS2_PLACEMENT_3D ( 'NONE', #209, #234, #7 ) ;
#259 = EDGE_LOOP ( 'NONE', ( #261 ) ) ;
#260 = DIRECTION ( 'NONE',  ( 3.491481338843133355E-15, -1.224646799147353207E-16, 1.000000000000000000 ) ) ;
#261 = ORIENTED_EDGE ( 'NONE', *, *, #133, .F. ) ;
#262 = CALENDAR_DATE ( 2021, 16, 12 ) ;
#263 = ORIENTED_EDGE ( 'NONE', *, *, #18, .T. ) ;
#264 = EDGE_LOOP ( 'NONE', ( #173 ) ) ;
#265 = TOROIDAL_SURFACE ( 'NONE', #219, 1.118000000000000327, 0.5000000000000002220 ) ;
#266 = FACE_OUTER_BOUND ( 'NONE', #121, .T. ) ;
#267 = CARTESIAN_POINT ( 'NONE',  ( 1.047444401652940007E-13, -3.673940397442059178E-15, 30.00000000000000000 ) ) ;
#268 = CIRCLE ( 'NONE', #99, 0.6000000000000000888 ) ;
#269 = CC_DESIGN_PERSON_AND_ORGANIZATION_ASSIGNMENT ( #116, #244, ( #52 ) ) ;
#270 = VERTEX_POINT ( 'NONE', #78 ) ;
#271 = CARTESIAN_POINT ( 'NONE',  ( -6.506430467257235629E-32, 2.282148598921491915E-33, -1.863515750427317245E-17 ) ) ;
#272 = DIRECTION ( 'NONE',  ( -3.491481338843133355E-15, 1.224646799147353207E-16, -1.000000000000000000 ) ) ;
#273 = ADVANCED_FACE ( 'NONE', ( #191 ), #84, .F. ) ;
#274 =( NAMED_UNIT ( * ) PLANE_ANGLE_UNIT ( ) SI_UNIT ( $, .RADIAN. ) );
#275 = DIRECTION ( 'NONE',  ( -6.232782991544458571E-31, -1.000000000000000000, -1.754372447387549309E-16 ) ) ;
#276 = FACE_OUTER_BOUND ( 'NONE', #199, .T. ) ;
#277 = DIRECTION ( 'NONE',  ( 0.0000000000000000000, 0.0000000000000000000, 1.000000000000000000 ) ) ;
#278 = EDGE_CURVE ( 'NONE', #64, #64, #32, .T. ) ;
#279 = PLANE ( 'NONE',  #14 ) ;
#280 = PERSON_AND_ORGANIZATION_ROLE ( 'classification_officer' ) ;
#281 = MANIFOLD_SOLID_BREP ( 'Corps-Déplacer/Copier1[1]', #164 ) ;
#282 = MANIFOLD_SOLID_BREP ( 'Corps-Déplacer/Copier1[2]', #206 ) ;
#283 = EDGE_LOOP ( 'NONE', ( #66 ) ) ;
ENDSEC;
END-ISO-10303-21;
