ISO-10303-21;
HEADER;
FILE_DESCRIPTION (( 'STEP AP203' ),
    '1' );
FILE_NAME ('986898.step',
    '2021-12-16T09:22:10',
    ( '' ),
    ( '' ),
    'SwSTEP 2.0',
    'SolidWorks 2019',
    '' );
FILE_SCHEMA (( 'CONFIG_CONTROL_DESIGN' ));
ENDSEC;

DATA;
#1 = CLOSED_SHELL ( 'NONE', ( #91, #147, #154, #250, #263, #213, #69 ) ) ;
#2 = PERSON_AND_ORGANIZATION_ROLE ( 'design_supplier' ) ;
#3 = CARTESIAN_POINT ( 'NONE',  ( 2.645168307299022160E-15, 0.5179999999999993499, 0.7576063139364999088 ) ) ;
#4 = PERSON_AND_ORGANIZATION ( #20, #185 ) ;
#5 = ORIENTED_EDGE ( 'NONE', *, *, #275, .F. ) ;
#6 = DIRECTION ( 'NONE',  ( 3.491481338843133355E-15, -1.224646799147353207E-16, 1.000000000000000000 ) ) ;
#7 = FACE_OUTER_BOUND ( 'NONE', #215, .T. ) ;
#8 = EDGE_CURVE ( 'NONE', #25, #25, #253, .T. ) ;
#9 = CALENDAR_DATE ( 2021, 16, 12 ) ;
#10 = EDGE_LOOP ( 'NONE', ( #169 ) ) ;
#11 = DIRECTION ( 'NONE',  ( -4.275831445896958607E-31, -1.000000000000000000, -1.224646799147353207E-16 ) ) ;
#12 = TOROIDAL_SURFACE ( 'NONE', #204, 1.018000000000000016, 0.4999999999999998890 ) ;
#13 = VERTEX_POINT ( 'NONE', #130 ) ;
#14 = ORIENTED_EDGE ( 'NONE', *, *, #84, .T. ) ;
#15 = DIRECTION ( 'NONE',  ( 0.0000000000000000000, 1.000000000000000000, 0.0000000000000000000 ) ) ;
#16 = CC_DESIGN_PERSON_AND_ORGANIZATION_ASSIGNMENT ( #54, #2, ( #247 ) ) ;
#17 = FACE_OUTER_BOUND ( 'NONE', #264, .T. ) ;
#18 = AXIS2_PLACEMENT_3D ( 'NONE', #77, #177, #52 ) ;
#19 = PRODUCT_DEFINITION ( 'UNKNOWN', '', #247, #227 ) ;
#20 = PERSON ( 'UNSPECIFIED', 'UNSPECIFIED', 'UNSPECIFIED', ('UNSPECIFIED'), ('UNSPECIFIED'), ('UNSPECIFIED') ) ;
#21 = CIRCLE ( 'NONE', #277, 0.7499999999999971134 ) ;
#22 = CC_DESIGN_DATE_AND_TIME_ASSIGNMENT ( #150, #175, ( #123 ) ) ;
#23 = DIRECTION ( 'NONE',  ( 0.0000000000000000000, 0.0000000000000000000, 1.000000000000000000 ) ) ;
#24 = DIRECTION ( 'NONE',  ( -3.491481338843133355E-15, 1.224646799147353207E-16, -1.000000000000000000 ) ) ;
#25 = VERTEX_POINT ( 'NONE', #111 ) ;
#26 = APPROVAL_ROLE ( '' ) ;
#27 = DIRECTION ( 'NONE',  ( -3.491481338843133355E-15, 1.224646799147353207E-16, -1.000000000000000000 ) ) ;
#28 = DATE_AND_TIME ( #9, #101 ) ;
#29 = DIRECTION ( 'NONE',  ( 0.0000000000000000000, 1.000000000000000000, 0.0000000000000000000 ) ) ;
#30 = DIRECTION ( 'NONE',  ( -7.436022951302076705E-31, -1.000000000000000000, -2.093054387037655536E-16 ) ) ;
#31 = ORIENTED_EDGE ( 'NONE', *, *, #282, .F. ) ;
#32 = CIRCLE ( 'NONE', #37, 0.5350370868554654713 ) ;
#33 = CARTESIAN_POINT ( 'NONE',  ( 1.396592535537253342E-14, -4.898587196589412829E-16, 4.000000000000000000 ) ) ;
#34 = CC_DESIGN_PERSON_AND_ORGANIZATION_ASSIGNMENT ( #236, #42, ( #19 ) ) ;
#35 = EDGE_LOOP ( 'NONE', ( #176 ) ) ;
#36 = CIRCLE ( 'NONE', #189, 0.3149999999999999467 ) ;
#37 = AXIS2_PLACEMENT_3D ( 'NONE', #160, #81, #15 ) ;
#38 = EDGE_CURVE ( 'NONE', #237, #237, #21, .T. ) ;
#39 = CC_DESIGN_PERSON_AND_ORGANIZATION_ASSIGNMENT ( #134, #258, ( #123 ) ) ;
#40 = DATE_TIME_ROLE ( 'creation_date' ) ;
#41 = AXIS2_PLACEMENT_3D ( 'NONE', #184, #133, #187 ) ;
#42 = PERSON_AND_ORGANIZATION_ROLE ( 'creator' ) ;
#43 = ORIENTED_EDGE ( 'NONE', *, *, #61, .T. ) ;
#44 = PRODUCT_DEFINITION_SHAPE ( 'NONE', 'NONE',  #19 ) ;
#45 = EDGE_LOOP ( 'NONE', ( #5 ) ) ;
#46 = DIRECTION ( 'NONE',  ( -3.491481338843133355E-15, 1.224646799147353207E-16, -1.000000000000000000 ) ) ;
#47 = APPROVAL_STATUS ( 'not_yet_approved' ) ;
#48 = LOCAL_TIME ( 10, 22, 10.00000000000000000, #192 ) ;
#49 = DIRECTION ( 'NONE',  ( 4.275831445896958607E-31, 1.000000000000000000, 1.224646799147353454E-16 ) ) ;
#50 = MECHANICAL_CONTEXT ( 'NONE', #209, 'mechanical' ) ;
#51 = ORIENTED_EDGE ( 'NONE', *, *, #84, .F. ) ;
#52 = DIRECTION ( 'NONE',  ( 0.0000000000000000000, 1.000000000000000000, 0.0000000000000000000 ) ) ;
#53 = CARTESIAN_POINT ( 'NONE',  ( 0.0000000000000000000, 0.0000000000000000000, 0.0000000000000000000 ) ) ;
#54 = PERSON_AND_ORGANIZATION ( #20, #185 ) ;
#55 = VERTEX_POINT ( 'NONE', #135 ) ;
#56 = FACE_BOUND ( 'NONE', #45, .T. ) ;
#57 = CARTESIAN_POINT ( 'NONE',  ( 1.815570296198429345E-14, -6.505213034913026604E-16, 5.200000000000000178 ) ) ;
#58 = EDGE_LOOP ( 'NONE', ( #155 ) ) ;
#59 = AXIS2_PLACEMENT_3D ( 'NONE', #33, #138, #120 ) ;
#60 = EDGE_LOOP ( 'NONE', ( #64 ) ) ;
#61 = EDGE_CURVE ( 'NONE', #244, #244, #32, .T. ) ;
#62 = LOCAL_TIME ( 10, 22, 10.00000000000000000, #217 ) ;
#63 = PERSON_AND_ORGANIZATION_ROLE ( 'design_owner' ) ;
#64 = ORIENTED_EDGE ( 'NONE', *, *, #8, .F. ) ;
#65 = AXIS2_PLACEMENT_3D ( 'NONE', #90, #27, #49 ) ;
#66 = CLOSED_SHELL ( 'NONE', ( #163, #122, #102, #126 ) ) ;
#67 = APPROVAL_DATE_TIME ( #274, #125 ) ;
#68 = ORIENTED_EDGE ( 'NONE', *, *, #8, .T. ) ;
#69 = ADVANCED_FACE ( 'NONE', ( #248 ), #97, .F. ) ;
#70 = ORIENTED_EDGE ( 'NONE', *, *, #38, .T. ) ;
#71 = APPROVAL_PERSON_ORGANIZATION ( #142, #110, #167 ) ;
#72 = APPROVAL_DATE_TIME ( #112, #110 ) ;
#73 = FACE_OUTER_BOUND ( 'NONE', #171, .T. ) ;
#74 = CALENDAR_DATE ( 2021, 16, 12 ) ;
#75 = DIRECTION ( 'NONE',  ( 0.0000000000000000000, 1.000000000000000000, 0.0000000000000000000 ) ) ;
#76 = PERSON_AND_ORGANIZATION ( #20, #185 ) ;
#77 = CARTESIAN_POINT ( 'NONE',  ( 1.396592535537253342E-14, -4.898587196589412829E-16, 4.000000000000000000 ) ) ;
#78 = CIRCLE ( 'NONE', #59, 0.5179999999999999050 ) ;
#79 = CARTESIAN_POINT ( 'NONE',  ( 1.047444401652940007E-13, -3.673940397442059178E-15, 30.00000000000000000 ) ) ;
#80 = VERTEX_POINT ( 'NONE', #259 ) ;
#81 = DIRECTION ( 'NONE',  ( -3.491481338843133355E-15, 1.224646799147353207E-16, -1.000000000000000000 ) ) ;
#82 = DIRECTION ( 'NONE',  ( 3.491481338843133355E-15, -1.224646799147353207E-16, 1.000000000000000000 ) ) ;
#83 = PRODUCT_RELATED_PRODUCT_CATEGORY ( 'detail', '', ( #238 ) ) ;
#84 = EDGE_CURVE ( 'NONE', #149, #149, #190, .T. ) ;
#85 = APPROVAL_STATUS ( 'not_yet_approved' ) ;
#86 = CIRCLE ( 'NONE', #18, 0.5179999999999999050 ) ;
#87 = CARTESIAN_POINT ( 'NONE',  ( 0.0000000000000000000, 0.0000000000000000000, 0.0000000000000000000 ) ) ;
#88 = APPROVAL_PERSON_ORGANIZATION ( #235, #125, #104 ) ;
#89 = DIRECTION ( 'NONE',  ( 0.0000000000000000000, 1.000000000000000000, 0.0000000000000000000 ) ) ;
#90 = CARTESIAN_POINT ( 'NONE',  ( 0.0000000000000000000, 0.0000000000000000000, 0.0000000000000000000 ) ) ;
#91 = ADVANCED_FACE ( 'NONE', ( #229 ), #266, .F. ) ;
#92 = PERSON_AND_ORGANIZATION_ROLE ( 'creator' ) ;
#93 = FACE_BOUND ( 'NONE', #186, .T. ) ;
#94 = DIRECTION ( 'NONE',  ( -3.491481338843133355E-15, 1.224646799147353207E-16, -1.000000000000000000 ) ) ;
#95 = SHAPE_DEFINITION_REPRESENTATION ( #44, #144 ) ;
#96 = CYLINDRICAL_SURFACE ( 'NONE', #65, 0.7499999999999984457 ) ;
#97 = PLANE ( 'NONE',  #103 ) ;
#98 = EDGE_CURVE ( 'NONE', #180, #180, #78, .T. ) ;
#99 =( GEOMETRIC_REPRESENTATION_CONTEXT ( 3 ) GLOBAL_UNCERTAINTY_ASSIGNED_CONTEXT ( ( #148 ) ) GLOBAL_UNIT_ASSIGNED_CONTEXT ( ( #182, #151, #165 ) ) REPRESENTATION_CONTEXT ( 'NONE', 'WORKASPACE' ) );
#100 = CARTESIAN_POINT ( 'NONE',  ( 1.042207179644675275E-13, -3.655570695454848748E-15, 29.84999999999999787 ) ) ;
#101 = LOCAL_TIME ( 10, 22, 10.00000000000000000, #254 ) ;
#102 = ADVANCED_FACE ( 'NONE', ( #245, #7 ), #230, .T. ) ;
#103 = AXIS2_PLACEMENT_3D ( 'NONE', #181, #119, #241 ) ;
#104 = APPROVAL_ROLE ( '' ) ;
#105 = CALENDAR_DATE ( 2021, 16, 12 ) ;
#106 = CC_DESIGN_SECURITY_CLASSIFICATION ( #123, ( #247 ) ) ;
#107 = APPROVAL_STATUS ( 'not_yet_approved' ) ;
#108 = DIRECTION ( 'NONE',  ( -3.491481338843133355E-15, 1.224646799147353207E-16, -1.000000000000000000 ) ) ;
#109 = ORIENTED_EDGE ( 'NONE', *, *, #275, .T. ) ;
#110 = APPROVAL ( #85, 'UNSPECIFIED' ) ;
#111 = CARTESIAN_POINT ( 'NONE',  ( 1.047444401652940007E-13, 0.5999999999999963141, 30.00000000000000000 ) ) ;
#112 = DATE_AND_TIME ( #225, #226 ) ;
#113 = ORIENTED_EDGE ( 'NONE', *, *, #282, .T. ) ;
#114 = DIRECTION ( 'NONE',  ( 4.275831445896958607E-31, 1.000000000000000000, 1.224646799147352961E-16 ) ) ;
#115 = DIRECTION ( 'NONE',  ( -3.491481338843133355E-15, 1.224646799147353207E-16, -1.000000000000000000 ) ) ;
#116 = CARTESIAN_POINT ( 'NONE',  ( 2.140858357530952124E-14, -7.509120286024056409E-16, 6.131662036149687189 ) ) ;
#117 = AXIS2_PLACEMENT_3D ( 'NONE', #283, #24, #89 ) ;
#118 = PLANE ( 'NONE',  #136 ) ;
#119 = DIRECTION ( 'NONE',  ( -3.491481338843133355E-15, 1.224646799147353207E-16, -1.000000000000000000 ) ) ;
#120 = DIRECTION ( 'NONE',  ( 0.0000000000000000000, 1.000000000000000000, 0.0000000000000000000 ) ) ;
#121 = DIRECTION ( 'NONE',  ( 0.0000000000000000000, 1.000000000000000000, 0.0000000000000000000 ) ) ;
#122 = ADVANCED_FACE ( 'NONE', ( #56, #178 ), #240, .T. ) ;
#123 = SECURITY_CLASSIFICATION ( '', '', #127 ) ;
#124 = APPLICATION_PROTOCOL_DEFINITION ( 'international standard', 'config_control_design', 1994, #209 ) ;
#125 = APPROVAL ( #107, 'UNSPECIFIED' ) ;
#126 = ADVANCED_FACE ( 'NONE', ( #140 ), #206, .T. ) ;
#127 = SECURITY_CLASSIFICATION_LEVEL ( 'unclassified' ) ;
#128 = DIRECTION ( 'NONE',  ( 4.275831445896958607E-31, 1.000000000000000000, 1.224646799147353454E-16 ) ) ;
#129 = APPROVAL_PERSON_ORGANIZATION ( #76, #221, #26 ) ;
#130 = CARTESIAN_POINT ( 'NONE',  ( -2.138211768073756517E-47, 0.3149999999999999467, 0.0000000000000000000 ) ) ;
#131 = EDGE_LOOP ( 'NONE', ( #109 ) ) ;
#132 = DIRECTION ( 'NONE',  ( 3.491481338843133355E-15, -1.224646799147353207E-16, 1.000000000000000000 ) ) ;
#133 = DIRECTION ( 'NONE',  ( 3.491481338843133355E-15, -1.224646799147353207E-16, 1.000000000000000000 ) ) ;
#134 = PERSON_AND_ORGANIZATION ( #20, #185 ) ;
#135 = CARTESIAN_POINT ( 'NONE',  ( 1.815570296198429345E-14, 0.5179999999999993499, 5.200000000000000178 ) ) ;
#136 = AXIS2_PLACEMENT_3D ( 'NONE', #205, #6, #11 ) ;
#137 = DIRECTION ( 'NONE',  ( 4.275831445896958607E-31, 1.000000000000000000, 1.224646799147353207E-16 ) ) ;
#138 = DIRECTION ( 'NONE',  ( -3.491481338843133355E-15, 1.224646799147353207E-16, -1.000000000000000000 ) ) ;
#139 = AXIS2_PLACEMENT_3D ( 'NONE', #267, #200, #162 ) ;
#140 = FACE_OUTER_BOUND ( 'NONE', #10, .T. ) ;
#141 = EDGE_CURVE ( 'NONE', #265, #265, #220, .T. ) ;
#142 = PERSON_AND_ORGANIZATION ( #20, #185 ) ;
#143 = CONICAL_SURFACE ( 'NONE', #153, 0.7499999999999971134, 0.2617993877991424689 ) ;
#144 = ADVANCED_BREP_SHAPE_REPRESENTATION ( '986898', ( #170, #268, #252 ), #99 ) ;
#145 = CALENDAR_DATE ( 2021, 16, 12 ) ;
#146 = CC_DESIGN_APPROVAL ( #110, ( #247 ) ) ;
#147 = ADVANCED_FACE ( 'NONE', ( #208, #17 ), #161, .T. ) ;
#148 = UNCERTAINTY_MEASURE_WITH_UNIT (LENGTH_MEASURE( 1.000000000000000082E-05 ), #182, 'distance_accuracy_value', 'NONE');
#149 = VERTEX_POINT ( 'NONE', #3 ) ;
#150 = DATE_AND_TIME ( #74, #62 ) ;
#151 =( NAMED_UNIT ( * ) PLANE_ANGLE_UNIT ( ) SI_UNIT ( $, .RADIAN. ) );
#152 = CARTESIAN_POINT ( 'NONE',  ( 2.140858357530952124E-14, -7.509120286024056409E-16, 6.131662036149687189 ) ) ;
#153 = AXIS2_PLACEMENT_3D ( 'NONE', #116, #132, #224 ) ;
#154 = ADVANCED_FACE ( 'NONE', ( #156, #199 ), #12, .F. ) ;
#155 = ORIENTED_EDGE ( 'NONE', *, *, #174, .T. ) ;
#156 = FACE_OUTER_BOUND ( 'NONE', #278, .T. ) ;
#157 = CARTESIAN_POINT ( 'NONE',  ( 2.645168307299021765E-15, -9.278001473761592480E-17, 0.7576063139364997978 ) ) ;
#158 = ORIENTED_EDGE ( 'NONE', *, *, #38, .F. ) ;
#159 = CARTESIAN_POINT ( 'NONE',  ( 1.042207179644675275E-13, 0.7499999999999962252, 29.84999999999999787 ) ) ;
#160 = CARTESIAN_POINT ( 'NONE',  ( 1.860753389504060636E-14, -6.526644313137820962E-16, 5.329409522551256551 ) ) ;
#161 = CYLINDRICAL_SURFACE ( 'NONE', #271, 0.5180000000000000160 ) ;
#162 = DIRECTION ( 'NONE',  ( -4.275831445896958607E-31, -1.000000000000000000, -1.224646799147353207E-16 ) ) ;
#163 = ADVANCED_FACE ( 'NONE', ( #194 ), #118, .F. ) ;
#164 = AXIS2_PLACEMENT_3D ( 'NONE', #53, #94, #203 ) ;
#165 =( NAMED_UNIT ( * ) SI_UNIT ( $, .STERADIAN. ) SOLID_ANGLE_UNIT ( ) );
#166 = CIRCLE ( 'NONE', #117, 0.5180000000000000160 ) ;
#167 = APPROVAL_ROLE ( '' ) ;
#168 = CONICAL_SURFACE ( 'NONE', #234, 0.6000000000000000888, 0.7853981633974450594 ) ;
#169 = ORIENTED_EDGE ( 'NONE', *, *, #98, .F. ) ;
#170 = MANIFOLD_SOLID_BREP ( 'Corps-Déplacer/Copier1[1]', #1 ) ;
#171 = EDGE_LOOP ( 'NONE', ( #70 ) ) ;
#172 = CARTESIAN_POINT ( 'NONE',  ( 2.140858357530952124E-14, 0.7499999999999963363, 6.131662036149687189 ) ) ;
#173 = CARTESIAN_POINT ( 'NONE',  ( 1.396592535537253342E-14, 0.5179999999999993499, 4.000000000000000000 ) ) ;
#174 = EDGE_CURVE ( 'NONE', #80, #80, #86, .T. ) ;
#175 = DATE_TIME_ROLE ( 'classification_date' ) ;
#176 = ORIENTED_EDGE ( 'NONE', *, *, #174, .F. ) ;
#177 = DIRECTION ( 'NONE',  ( -3.491481338843133355E-15, 1.224646799147353207E-16, -1.000000000000000000 ) ) ;
#178 = FACE_OUTER_BOUND ( 'NONE', #195, .T. ) ;
#179 = APPROVAL_DATE_TIME ( #28, #221 ) ;
#180 = VERTEX_POINT ( 'NONE', #173 ) ;
#181 = CARTESIAN_POINT ( 'NONE',  ( 1.047444401652940007E-13, 4.499279347985518085E-33, 30.00000000000000000 ) ) ;
#182 =( LENGTH_UNIT ( ) NAMED_UNIT ( * ) SI_UNIT ( .MILLI., .METRE. ) );
#183 = CARTESIAN_POINT ( 'NONE',  ( 2.645168307299021765E-15, -9.278001473761592480E-17, 0.7576063139364997978 ) ) ;
#184 = CARTESIAN_POINT ( 'NONE',  ( 1.396592535537253342E-14, 3.884377837094203021E-33, 4.000000000000000000 ) ) ;
#185 = ORGANIZATION ( 'UNSPECIFIED', 'UNSPECIFIED', '' ) ;
#186 = EDGE_LOOP ( 'NONE', ( #68 ) ) ;
#187 = DIRECTION ( 'NONE',  ( -4.275831445896958607E-31, -1.000000000000000000, -1.224646799147353207E-16 ) ) ;
#188 = CC_DESIGN_DATE_AND_TIME_ASSIGNMENT ( #279, #40, ( #19 ) ) ;
#189 = AXIS2_PLACEMENT_3D ( 'NONE', #219, #246, #128 ) ;
#190 = CIRCLE ( 'NONE', #256, 0.5179999999999994609 ) ;
#191 = ORIENTED_EDGE ( 'NONE', *, *, #141, .F. ) ;
#192 = COORDINATED_UNIVERSAL_TIME_OFFSET ( 1, 0, .AHEAD. ) ;
#193 = EDGE_LOOP ( 'NONE', ( #249 ) ) ;
#194 = FACE_OUTER_BOUND ( 'NONE', #131, .T. ) ;
#195 = EDGE_LOOP ( 'NONE', ( #14 ) ) ;
#197 = AXIS2_PLACEMENT_3D ( 'NONE', #222, #260, #75 ) ;
#196 = CARTESIAN_POINT ( 'NONE',  ( 0.0000000000000000000, 0.0000000000000000000, 0.0000000000000000000 ) ) ;
#198 = EDGE_LOOP ( 'NONE', ( #158 ) ) ;
#199 = FACE_OUTER_BOUND ( 'NONE', #202, .T. ) ;
#200 = DIRECTION ( 'NONE',  ( 3.491481338843133355E-15, -1.224646799147353207E-16, 1.000000000000000000 ) ) ;
#201 = FACE_OUTER_BOUND ( 'NONE', #272, .T. ) ;
#202 = EDGE_LOOP ( 'NONE', ( #43 ) ) ;
#203 = DIRECTION ( 'NONE',  ( 4.275831445896958607E-31, 1.000000000000000000, 1.224646799147353207E-16 ) ) ;
#204 = AXIS2_PLACEMENT_3D ( 'NONE', #57, #46, #137 ) ;
#205 = CARTESIAN_POINT ( 'NONE',  ( -6.734434527287710156E-32, 2.362121657692425527E-33, -1.928818708657081344E-17 ) ) ;
#206 = PLANE ( 'NONE',  #41 ) ;
#207 = DIRECTION ( 'NONE',  ( 0.0000000000000000000, 1.000000000000000000, 0.0000000000000000000 ) ) ;
#208 = FACE_OUTER_BOUND ( 'NONE', #35, .T. ) ;
#209 = APPLICATION_CONTEXT ( 'configuration controlled 3d designs of mechanical parts and assemblies' ) ;
#210 = AXIS2_PLACEMENT_3D ( 'NONE', #157, #82, #30 ) ;
#211 = LOCAL_TIME ( 10, 22, 10.00000000000000000, #276 ) ;
#212 = AXIS2_PLACEMENT_3D ( 'NONE', #100, #273, #121 ) ;
#213 = ADVANCED_FACE ( 'NONE', ( #201, #93 ), #168, .T. ) ;
#214 = APPLICATION_PROTOCOL_DEFINITION ( 'international standard', 'config_control_design', 1994, #232 ) ;
#215 = EDGE_LOOP ( 'NONE', ( #218 ) ) ;
#216 = CC_DESIGN_PERSON_AND_ORGANIZATION_ASSIGNMENT ( #4, #92, ( #247 ) ) ;
#217 = COORDINATED_UNIVERSAL_TIME_OFFSET ( 1, 0, .AHEAD. ) ;
#218 = ORIENTED_EDGE ( 'NONE', *, *, #98, .T. ) ;
#219 = CARTESIAN_POINT ( 'NONE',  ( -1.346886905457542031E-31, 4.724243315384851054E-33, -3.857637417314162689E-17 ) ) ;
#220 = CIRCLE ( 'NONE', #212, 0.7499999999999998890 ) ;
#221 = APPROVAL ( #47, 'UNSPECIFIED' ) ;
#222 = CARTESIAN_POINT ( 'NONE',  ( 1.047444401652940007E-13, -3.673940397442059178E-15, 30.00000000000000000 ) ) ;
#223 = EDGE_LOOP ( 'NONE', ( #51 ) ) ;
#224 = DIRECTION ( 'NONE',  ( 0.0000000000000000000, -1.000000000000000000, 0.0000000000000000000 ) ) ;
#225 = CALENDAR_DATE ( 2021, 16, 12 ) ;
#226 = LOCAL_TIME ( 10, 22, 10.00000000000000000, #280 ) ;
#227 = DESIGN_CONTEXT ( 'detailed design', #232, 'design' ) ;
#228 = FACE_OUTER_BOUND ( 'NONE', #198, .T. ) ;
#229 = FACE_OUTER_BOUND ( 'NONE', #58, .T. ) ;
#230 = CYLINDRICAL_SURFACE ( 'NONE', #164, 0.5179999999999996829 ) ;
#231 = CC_DESIGN_APPROVAL ( #125, ( #19 ) ) ;
#232 = APPLICATION_CONTEXT ( 'configuration controlled 3d designs of mechanical parts and assemblies' ) ;
#233 = CC_DESIGN_PERSON_AND_ORGANIZATION_ASSIGNMENT ( #251, #63, ( #238 ) ) ;
#234 = AXIS2_PLACEMENT_3D ( 'NONE', #79, #243, #29 ) ;
#235 = PERSON_AND_ORGANIZATION ( #20, #185 ) ;
#236 = PERSON_AND_ORGANIZATION ( #20, #185 ) ;
#237 = VERTEX_POINT ( 'NONE', #172 ) ;
#238 = PRODUCT ( '986898', '986898', '', ( #50 ) ) ;
#239 = FACE_BOUND ( 'NONE', #269, .T. ) ;
#240 = CONICAL_SURFACE ( 'NONE', #210, 0.5179999999999994609, 0.2617993877991429685 ) ;
#241 = DIRECTION ( 'NONE',  ( 4.275831445896958607E-31, 1.000000000000000000, 1.224646799147353207E-16 ) ) ;
#242 = DIRECTION ( 'NONE',  ( 1.000000000000000000, 0.0000000000000000000, 0.0000000000000000000 ) ) ;
#243 = DIRECTION ( 'NONE',  ( -3.491481338843133355E-15, 1.224646799147353207E-16, -1.000000000000000000 ) ) ;
#244 = VERTEX_POINT ( 'NONE', #257 ) ;
#245 = FACE_OUTER_BOUND ( 'NONE', #223, .T. ) ;
#246 = DIRECTION ( 'NONE',  ( -3.491481338843133355E-15, 1.224646799147353207E-16, -1.000000000000000000 ) ) ;
#247 = PRODUCT_DEFINITION_FORMATION_WITH_SPECIFIED_SOURCE ( 'ANY', '', #238, .NOT_KNOWN. ) ;
#248 = FACE_OUTER_BOUND ( 'NONE', #60, .T. ) ;
#249 = ORIENTED_EDGE ( 'NONE', *, *, #141, .T. ) ;
#250 = ADVANCED_FACE ( 'NONE', ( #239, #73 ), #143, .T. ) ;
#251 = PERSON_AND_ORGANIZATION ( #20, #185 ) ;
#252 = AXIS2_PLACEMENT_3D ( 'NONE', #87, #23, #242 ) ;
#253 = CIRCLE ( 'NONE', #197, 0.6000000000000000888 ) ;
#254 = COORDINATED_UNIVERSAL_TIME_OFFSET ( 1, 0, .AHEAD. ) ;
#255 = CC_DESIGN_APPROVAL ( #221, ( #123 ) ) ;
#256 = AXIS2_PLACEMENT_3D ( 'NONE', #183, #262, #270 ) ;
#257 = CARTESIAN_POINT ( 'NONE',  ( 1.860753389504060636E-14, 0.5350370868554648052, 5.329409522551256551 ) ) ;
#258 = PERSON_AND_ORGANIZATION_ROLE ( 'classification_officer' ) ;
#259 = CARTESIAN_POINT ( 'NONE',  ( 1.396592535537253342E-14, 0.5179999999999993499, 4.000000000000000000 ) ) ;
#260 = DIRECTION ( 'NONE',  ( -3.491481338843133355E-15, 1.224646799147353207E-16, -1.000000000000000000 ) ) ;
#261 = FACE_OUTER_BOUND ( 'NONE', #193, .T. ) ;
#262 = DIRECTION ( 'NONE',  ( -3.491481338843133355E-15, 1.224646799147353207E-16, -1.000000000000000000 ) ) ;
#263 = ADVANCED_FACE ( 'NONE', ( #228, #261 ), #96, .T. ) ;
#264 = EDGE_LOOP ( 'NONE', ( #113 ) ) ;
#265 = VERTEX_POINT ( 'NONE', #159 ) ;
#266 = PLANE ( 'NONE',  #139 ) ;
#267 = CARTESIAN_POINT ( 'NONE',  ( 1.396592535537253342E-14, 3.884377837094203021E-33, 4.000000000000000000 ) ) ;
#268 = MANIFOLD_SOLID_BREP ( 'Corps-Déplacer/Copier1[2]', #66 ) ;
#269 = EDGE_LOOP ( 'NONE', ( #281 ) ) ;
#270 = DIRECTION ( 'NONE',  ( 7.436022951302076705E-31, 1.000000000000000000, 2.093054387037655536E-16 ) ) ;
#271 = AXIS2_PLACEMENT_3D ( 'NONE', #196, #108, #114 ) ;
#272 = EDGE_LOOP ( 'NONE', ( #191 ) ) ;
#273 = DIRECTION ( 'NONE',  ( -3.491481338843133355E-15, 1.224646799147353207E-16, -1.000000000000000000 ) ) ;
#274 = DATE_AND_TIME ( #105, #48 ) ;
#275 = EDGE_CURVE ( 'NONE', #13, #13, #36, .T. ) ;
#276 = COORDINATED_UNIVERSAL_TIME_OFFSET ( 1, 0, .AHEAD. ) ;
#277 = AXIS2_PLACEMENT_3D ( 'NONE', #152, #115, #207 ) ;
#278 = EDGE_LOOP ( 'NONE', ( #31 ) ) ;
#279 = DATE_AND_TIME ( #145, #211 ) ;
#280 = COORDINATED_UNIVERSAL_TIME_OFFSET ( 1, 0, .AHEAD. ) ;
#281 = ORIENTED_EDGE ( 'NONE', *, *, #61, .F. ) ;
#282 = EDGE_CURVE ( 'NONE', #55, #55, #166, .T. ) ;
#283 = CARTESIAN_POINT ( 'NONE',  ( 1.815570296198429345E-14, -6.368163355566236381E-16, 5.200000000000000178 ) ) ;
ENDSEC;
END-ISO-10303-21;
