ISO-10303-21;
HEADER;
FILE_DESCRIPTION (( 'STEP AP203' ),
    '1' );
FILE_NAME ('986897.step',
    '2021-12-16T09:22:09',
    ( '' ),
    ( '' ),
    'SwSTEP 2.0',
    'SolidWorks 2019',
    '' );
FILE_SCHEMA (( 'CONFIG_CONTROL_DESIGN' ));
ENDSEC;

DATA;
#1 = APPROVAL_PERSON_ORGANIZATION ( #183, #82, #56 ) ;
#2 = DATE_TIME_ROLE ( 'creation_date' ) ;
#3 = CARTESIAN_POINT ( 'NONE',  ( 2.358499820793709242E-15, -8.272503777097776027E-17, 0.6755011961699827205 ) ) ;
#4 = DIRECTION ( 'NONE',  ( -3.491481338843133355E-15, 1.224646799147353207E-16, -1.000000000000000000 ) ) ;
#5 = CC_DESIGN_DATE_AND_TIME_ASSIGNMENT ( #42, #2, ( #119 ) ) ;
#6 = PLANE ( 'NONE',  #180 ) ;
#7 = FACE_OUTER_BOUND ( 'NONE', #172, .T. ) ;
#8 = AXIS2_PLACEMENT_3D ( 'NONE', #179, #94, #98 ) ;
#9 = PRODUCT ( '986897', '986897', '', ( #147 ) ) ;
#10 = CARTESIAN_POINT ( 'NONE',  ( 0.0000000000000000000, 0.0000000000000000000, 0.0000000000000000000 ) ) ;
#11 = DIRECTION ( 'NONE',  ( 0.0000000000000000000, 1.000000000000000000, 0.0000000000000000000 ) ) ;
#12 = VERTEX_POINT ( 'NONE', #100 ) ;
#13 = CONICAL_SURFACE ( 'NONE', #202, 0.7499999999999971134, 0.2617993877991426910 ) ;
#14 = VERTEX_POINT ( 'NONE', #61 ) ;
#15 = ADVANCED_FACE ( 'NONE', ( #25, #113 ), #126, .T. ) ;
#16 = EDGE_LOOP ( 'NONE', ( #133 ) ) ;
#17 = APPLICATION_CONTEXT ( 'configuration controlled 3d designs of mechanical parts and assemblies' ) ;
#18 = EDGE_LOOP ( 'NONE', ( #41 ) ) ;
#19 = PRODUCT_DEFINITION_FORMATION_WITH_SPECIFIED_SOURCE ( 'ANY', '', #9, .NOT_KNOWN. ) ;
#20 = APPROVAL_STATUS ( 'not_yet_approved' ) ;
#21 = APPROVAL_DATE_TIME ( #277, #144 ) ;
#22 = AXIS2_PLACEMENT_3D ( 'NONE', #32, #175, #197 ) ;
#23 = CALENDAR_DATE ( 2021, 16, 12 ) ;
#24 = CC_DESIGN_DATE_AND_TIME_ASSIGNMENT ( #152, #131, ( #54 ) ) ;
#25 = FACE_BOUND ( 'NONE', #60, .T. ) ;
#26 = PRODUCT_DEFINITION_SHAPE ( 'NONE', 'NONE',  #119 ) ;
#27 = CARTESIAN_POINT ( 'NONE',  ( 1.047444401652940007E-13, -3.673940397442059178E-15, 30.00000000000000000 ) ) ;
#28 = PLANE ( 'NONE',  #239 ) ;
#29 = AXIS2_PLACEMENT_3D ( 'NONE', #198, #264, #205 ) ;
#30 = CARTESIAN_POINT ( 'NONE',  ( 1.047444401652940007E-13, -3.673940397442059178E-15, 30.00000000000000000 ) ) ;
#31 = ADVANCED_FACE ( 'NONE', ( #132 ), #28, .F. ) ;
#32 = CARTESIAN_POINT ( 'NONE',  ( -1.218611962080633308E-31, 4.274315380586293909E-33, -3.490243377569956308E-17 ) ) ;
#33 = DIRECTION ( 'NONE',  ( -3.491481338843133355E-15, 1.224646799147353207E-16, -1.000000000000000000 ) ) ;
#34 = DIRECTION ( 'NONE',  ( -3.491481338843133355E-15, 1.224646799147353207E-16, -1.000000000000000000 ) ) ;
#35 = EDGE_CURVE ( 'NONE', #14, #14, #283, .T. ) ;
#36 = APPLICATION_CONTEXT ( 'configuration controlled 3d designs of mechanical parts and assemblies' ) ;
#37 = DIRECTION ( 'NONE',  ( 4.275831445896957731E-31, 1.000000000000000000, 1.224646799147353207E-16 ) ) ;
#38 = DIRECTION ( 'NONE',  ( 0.0000000000000000000, 0.0000000000000000000, 1.000000000000000000 ) ) ;
#39 = AXIS2_PLACEMENT_3D ( 'NONE', #145, #55, #11 ) ;
#40 = ADVANCED_FACE ( 'NONE', ( #114 ), #228, .F. ) ;
#41 = ORIENTED_EDGE ( 'NONE', *, *, #207, .F. ) ;
#42 = DATE_AND_TIME ( #88, #76 ) ;
#43 = EDGE_LOOP ( 'NONE', ( #107 ) ) ;
#44 = EDGE_LOOP ( 'NONE', ( #170 ) ) ;
#45 = PERSON_AND_ORGANIZATION ( #68, #139 ) ;
#46 = DIRECTION ( 'NONE',  ( 3.491481338843133355E-15, -1.224646799147353207E-16, 1.000000000000000000 ) ) ;
#47 = ORIENTED_EDGE ( 'NONE', *, *, #35, .T. ) ;
#48 = CC_DESIGN_APPROVAL ( #144, ( #19 ) ) ;
#49 = DIRECTION ( 'NONE',  ( 0.0000000000000000000, -1.000000000000000000, 0.0000000000000000000 ) ) ;
#50 = DIRECTION ( 'NONE',  ( 0.0000000000000000000, 1.000000000000000000, 0.0000000000000000000 ) ) ;
#51 = PRODUCT_RELATED_PRODUCT_CATEGORY ( 'detail', '', ( #9 ) ) ;
#52 = FACE_OUTER_BOUND ( 'NONE', #153, .T. ) ;
#53 =( NAMED_UNIT ( * ) SI_UNIT ( $, .STERADIAN. ) SOLID_ANGLE_UNIT ( ) );
#54 = SECURITY_CLASSIFICATION ( '', '', #213 ) ;
#55 = DIRECTION ( 'NONE',  ( -3.491481338843133355E-15, 1.224646799147353207E-16, -1.000000000000000000 ) ) ;
#56 = APPROVAL_ROLE ( '' ) ;
#57 = CARTESIAN_POINT ( 'NONE',  ( 1.396592535537253342E-14, 3.494440293602119660E-33, 4.000000000000000000 ) ) ;
#58 =( NAMED_UNIT ( * ) PLANE_ANGLE_UNIT ( ) SI_UNIT ( $, .RADIAN. ) );
#59 = AXIS2_PLACEMENT_3D ( 'NONE', #223, #75, #50 ) ;
#60 = EDGE_LOOP ( 'NONE', ( #89 ) ) ;
#61 = CARTESIAN_POINT ( 'NONE',  ( 1.815570296198429345E-14, 0.4659999999999994147, 5.200000000000000178 ) ) ;
#62 = EDGE_LOOP ( 'NONE', ( #217 ) ) ;
#63 = ORIENTED_EDGE ( 'NONE', *, *, #174, .T. ) ;
#64 = CC_DESIGN_SECURITY_CLASSIFICATION ( #54, ( #19 ) ) ;
#65 = PERSON_AND_ORGANIZATION ( #68, #139 ) ;
#66 = DIRECTION ( 'NONE',  ( -4.275831445896958607E-31, -1.000000000000000000, -1.224646799147353207E-16 ) ) ;
#67 = AXIS2_PLACEMENT_3D ( 'NONE', #27, #164, #95 ) ;
#68 = PERSON ( 'UNSPECIFIED', 'UNSPECIFIED', 'UNSPECIFIED', ('UNSPECIFIED'), ('UNSPECIFIED'), ('UNSPECIFIED') ) ;
#69 = COORDINATED_UNIVERSAL_TIME_OFFSET ( 1, 0, .AHEAD. ) ;
#70 = MANIFOLD_SOLID_BREP ( 'Corps-Déplacer/Copier1[2]', #196 ) ;
#71 = TOROIDAL_SURFACE ( 'NONE', #267, 0.9660000000000001918, 0.5000000000000000000 ) ;
#72 = CYLINDRICAL_SURFACE ( 'NONE', #146, 0.4659999999999997478 ) ;
#73 = MANIFOLD_SOLID_BREP ( 'Corps-Déplacer/Copier1[1]', #121 ) ;
#74 = DIRECTION ( 'NONE',  ( -4.275831445896958607E-31, -1.000000000000000000, -1.224646799147353207E-16 ) ) ;
#75 = DIRECTION ( 'NONE',  ( -3.491481338843133355E-15, 1.224646799147353207E-16, -1.000000000000000000 ) ) ;
#76 = LOCAL_TIME ( 10, 22, 9.000000000000000000, #69 ) ;
#77 = CARTESIAN_POINT ( 'NONE',  ( -6.093059810403166540E-32, 2.137157690293146954E-33, -1.745121688784978154E-17 ) ) ;
#78 = CC_DESIGN_PERSON_AND_ORGANIZATION_ASSIGNMENT ( #281, #260, ( #54 ) ) ;
#79 = FACE_BOUND ( 'NONE', #257, .T. ) ;
#80 = CARTESIAN_POINT ( 'NONE',  ( 2.358499820793709637E-15, 0.4659999999999994147, 0.6755011961699828316 ) ) ;
#81 =( LENGTH_UNIT ( ) NAMED_UNIT ( * ) SI_UNIT ( .MILLI., .METRE. ) );
#82 = APPROVAL ( #255, 'UNSPECIFIED' ) ;
#83 = CARTESIAN_POINT ( 'NONE',  ( 1.047444401652940007E-13, 0.5999999999999963141, 30.00000000000000000 ) ) ;
#84 = FACE_OUTER_BOUND ( 'NONE', #280, .T. ) ;
#85 =( GEOMETRIC_REPRESENTATION_CONTEXT ( 3 ) GLOBAL_UNCERTAINTY_ASSIGNED_CONTEXT ( ( #169 ) ) GLOBAL_UNIT_ASSIGNED_CONTEXT ( ( #81, #58, #53 ) ) REPRESENTATION_CONTEXT ( 'NONE', 'WORKASPACE' ) );
#86 = ORIENTED_EDGE ( 'NONE', *, *, #151, .F. ) ;
#87 = APPROVAL_DATE_TIME ( #108, #154 ) ;
#88 = CALENDAR_DATE ( 2021, 16, 12 ) ;
#89 = ORIENTED_EDGE ( 'NONE', *, *, #160, .F. ) ;
#90 = CIRCLE ( 'NONE', #221, 0.4830370868554653696 ) ;
#91 = EDGE_CURVE ( 'NONE', #165, #165, #115, .T. ) ;
#92 = APPROVAL_STATUS ( 'not_yet_approved' ) ;
#93 = FACE_OUTER_BOUND ( 'NONE', #238, .T. ) ;
#94 = DIRECTION ( 'NONE',  ( 3.491481338843133355E-15, -1.224646799147353207E-16, 1.000000000000000000 ) ) ;
#95 = DIRECTION ( 'NONE',  ( 0.0000000000000000000, 1.000000000000000000, 0.0000000000000000000 ) ) ;
#96 = PLANE ( 'NONE',  #8 ) ;
#97 = AXIS2_PLACEMENT_3D ( 'NONE', #30, #33, #140 ) ;
#98 = DIRECTION ( 'NONE',  ( -4.275831445896958607E-31, -1.000000000000000000, -1.224646799147353207E-16 ) ) ;
#99 = DIRECTION ( 'NONE',  ( 1.000000000000000000, 0.0000000000000000000, 0.0000000000000000000 ) ) ;
#100 = CARTESIAN_POINT ( 'NONE',  ( 0.0000000000000000000, 0.2849999999999999756, 0.0000000000000000000 ) ) ;
#101 = CC_DESIGN_PERSON_AND_ORGANIZATION_ASSIGNMENT ( #273, #211, ( #9 ) ) ;
#102 = CIRCLE ( 'NONE', #39, 0.4659999999999999143 ) ;
#103 = CARTESIAN_POINT ( 'NONE',  ( 1.042207179644675275E-13, 0.7499999999999962252, 29.84999999999999787 ) ) ;
#104 = EDGE_LOOP ( 'NONE', ( #222 ) ) ;
#105 = EDGE_LOOP ( 'NONE', ( #209 ) ) ;
#106 = CIRCLE ( 'NONE', #22, 0.2849999999999999756 ) ;
#107 = ORIENTED_EDGE ( 'NONE', *, *, #168, .F. ) ;
#108 = DATE_AND_TIME ( #23, #158 ) ;
#109 = EDGE_LOOP ( 'NONE', ( #47 ) ) ;
#110 = DIRECTION ( 'NONE',  ( -3.491481338843133355E-15, 1.224646799147353207E-16, -1.000000000000000000 ) ) ;
#111 = APPROVAL_ROLE ( '' ) ;
#112 = ADVANCED_FACE ( 'NONE', ( #163, #266 ), #72, .T. ) ;
#113 = FACE_OUTER_BOUND ( 'NONE', #105, .T. ) ;
#114 = FACE_OUTER_BOUND ( 'NONE', #16, .T. ) ;
#115 = CIRCLE ( 'NONE', #161, 0.4659999999999995257 ) ;
#116 = AXIS2_PLACEMENT_3D ( 'NONE', #245, #229, #210 ) ;
#117 = DIRECTION ( 'NONE',  ( 0.0000000000000000000, 1.000000000000000000, 0.0000000000000000000 ) ) ;
#118 = DIRECTION ( 'NONE',  ( 0.0000000000000000000, 1.000000000000000000, 0.0000000000000000000 ) ) ;
#119 = PRODUCT_DEFINITION ( 'UNKNOWN', '', #19, #224 ) ;
#120 = CARTESIAN_POINT ( 'NONE',  ( 2.208616363432208220E-14, -7.746783377962778163E-16, 6.325728678143274664 ) ) ;
#121 = CLOSED_SHELL ( 'NONE', ( #31, #274, #124, #220, #261, #254, #135 ) ) ;
#122 = CIRCLE ( 'NONE', #253, 0.4659999999999999143 ) ;
#123 = FACE_BOUND ( 'NONE', #149, .T. ) ;
#124 = ADVANCED_FACE ( 'NONE', ( #52, #93 ), #71, .F. ) ;
#125 = CALENDAR_DATE ( 2021, 16, 12 ) ;
#126 = CONICAL_SURFACE ( 'NONE', #116, 0.4659999999999995257, 0.2617993877991428575 ) ;
#127 = VERTEX_POINT ( 'NONE', #83 ) ;
#128 = CC_DESIGN_PERSON_AND_ORGANIZATION_ASSIGNMENT ( #173, #258, ( #19 ) ) ;
#129 = ORIENTED_EDGE ( 'NONE', *, *, #151, .T. ) ;
#130 = EDGE_LOOP ( 'NONE', ( #212 ) ) ;
#131 = DATE_TIME_ROLE ( 'classification_date' ) ;
#132 = FACE_OUTER_BOUND ( 'NONE', #44, .T. ) ;
#133 = ORIENTED_EDGE ( 'NONE', *, *, #160, .T. ) ;
#134 = ADVANCED_BREP_SHAPE_REPRESENTATION ( '986897', ( #73, #70, #171 ), #85 ) ;
#135 = ADVANCED_FACE ( 'NONE', ( #7 ), #6, .F. ) ;
#136 = CALENDAR_DATE ( 2021, 16, 12 ) ;
#137 = DIRECTION ( 'NONE',  ( -3.491481338843133355E-15, 1.224646799147353207E-16, -1.000000000000000000 ) ) ;
#138 = DIRECTION ( 'NONE',  ( -3.491481338843133355E-15, 1.224646799147353207E-16, -1.000000000000000000 ) ) ;
#139 = ORGANIZATION ( 'UNSPECIFIED', 'UNSPECIFIED', '' ) ;
#140 = DIRECTION ( 'NONE',  ( 0.0000000000000000000, 1.000000000000000000, 0.0000000000000000000 ) ) ;
#141 = CARTESIAN_POINT ( 'NONE',  ( 1.860753389504060951E-14, -6.526644313137821948E-16, 5.329409522551257439 ) ) ;
#142 = ORIENTED_EDGE ( 'NONE', *, *, #174, .F. ) ;
#143 = FACE_OUTER_BOUND ( 'NONE', #43, .T. ) ;
#144 = APPROVAL ( #92, 'UNSPECIFIED' ) ;
#145 = CARTESIAN_POINT ( 'NONE',  ( 1.396592535537253342E-14, -4.898587196589412829E-16, 4.000000000000000000 ) ) ;
#146 = AXIS2_PLACEMENT_3D ( 'NONE', #157, #178, #242 ) ;
#147 = MECHANICAL_CONTEXT ( 'NONE', #17, 'mechanical' ) ;
#148 = PERSON_AND_ORGANIZATION_ROLE ( 'creator' ) ;
#149 = EDGE_LOOP ( 'NONE', ( #142 ) ) ;
#150 = CIRCLE ( 'NONE', #244, 0.7499999999999998890 ) ;
#151 = EDGE_CURVE ( 'NONE', #127, #127, #226, .T. ) ;
#152 = DATE_AND_TIME ( #136, #192 ) ;
#153 = EDGE_LOOP ( 'NONE', ( #259 ) ) ;
#154 = APPROVAL ( #20, 'UNSPECIFIED' ) ;
#155 = AXIS2_PLACEMENT_3D ( 'NONE', #252, #182, #37 ) ;
#156 = FACE_OUTER_BOUND ( 'NONE', #18, .T. ) ;
#157 = CARTESIAN_POINT ( 'NONE',  ( 0.0000000000000000000, 0.0000000000000000000, 0.0000000000000000000 ) ) ;
#158 = LOCAL_TIME ( 10, 22, 9.000000000000000000, #194 ) ;
#159 = DIRECTION ( 'NONE',  ( 0.0000000000000000000, 1.000000000000000000, 0.0000000000000000000 ) ) ;
#160 = EDGE_CURVE ( 'NONE', #12, #12, #106, .T. ) ;
#161 = AXIS2_PLACEMENT_3D ( 'NONE', #3, #34, #247 ) ;
#162 = CC_DESIGN_APPROVAL ( #82, ( #119 ) ) ;
#163 = FACE_OUTER_BOUND ( 'NONE', #62, .T. ) ;
#164 = DIRECTION ( 'NONE',  ( -3.491481338843133355E-15, 1.224646799147353207E-16, -1.000000000000000000 ) ) ;
#165 = VERTEX_POINT ( 'NONE', #80 ) ;
#166 = VERTEX_POINT ( 'NONE', #248 ) ;
#167 = FACE_OUTER_BOUND ( 'NONE', #109, .T. ) ;
#168 = EDGE_CURVE ( 'NONE', #270, #270, #193, .T. ) ;
#169 = UNCERTAINTY_MEASURE_WITH_UNIT (LENGTH_MEASURE( 1.000000000000000082E-05 ), #81, 'distance_accuracy_value', 'NONE');
#170 = ORIENTED_EDGE ( 'NONE', *, *, #282, .T. ) ;
#171 = AXIS2_PLACEMENT_3D ( 'NONE', #10, #38, #99 ) ;
#172 = EDGE_LOOP ( 'NONE', ( #86 ) ) ;
#173 = PERSON_AND_ORGANIZATION ( #68, #139 ) ;
#174 = EDGE_CURVE ( 'NONE', #166, #166, #90, .T. ) ;
#175 = DIRECTION ( 'NONE',  ( -3.491481338843133355E-15, 1.224646799147353207E-16, -1.000000000000000000 ) ) ;
#176 = LOCAL_TIME ( 10, 22, 9.000000000000000000, #188 ) ;
#177 = CYLINDRICAL_SURFACE ( 'NONE', #29, 0.7499999999999984457 ) ;
#178 = DIRECTION ( 'NONE',  ( -3.491481338843133355E-15, 1.224646799147353207E-16, -1.000000000000000000 ) ) ;
#179 = CARTESIAN_POINT ( 'NONE',  ( 1.396592535537253342E-14, 3.494440293602119660E-33, 4.000000000000000000 ) ) ;
#180 = AXIS2_PLACEMENT_3D ( 'NONE', #265, #246, #225 ) ;
#181 = CARTESIAN_POINT ( 'NONE',  ( 1.815570296198429345E-14, -6.505213034913026604E-16, 5.200000000000000178 ) ) ;
#182 = DIRECTION ( 'NONE',  ( -3.491481338843133355E-15, 1.224646799147353207E-16, -1.000000000000000000 ) ) ;
#183 = PERSON_AND_ORGANIZATION ( #68, #139 ) ;
#184 = AXIS2_PLACEMENT_3D ( 'NONE', #190, #110, #191 ) ;
#185 = CARTESIAN_POINT ( 'NONE',  ( 1.396592535537253342E-14, 0.4659999999999994147, 4.000000000000000000 ) ) ;
#186 = APPROVAL_DATE_TIME ( #208, #82 ) ;
#187 = LOCAL_TIME ( 10, 22, 9.000000000000000000, #249 ) ;
#188 = COORDINATED_UNIVERSAL_TIME_OFFSET ( 1, 0, .AHEAD. ) ;
#189 = SHAPE_DEFINITION_REPRESENTATION ( #26, #134 ) ;
#190 = CARTESIAN_POINT ( 'NONE',  ( 1.815570296198429345E-14, -6.368163355566236381E-16, 5.200000000000000178 ) ) ;
#191 = DIRECTION ( 'NONE',  ( 0.0000000000000000000, 1.000000000000000000, 0.0000000000000000000 ) ) ;
#192 = LOCAL_TIME ( 10, 22, 9.000000000000000000, #218 ) ;
#193 = CIRCLE ( 'NONE', #59, 0.7499999999999971134 ) ;
#194 = COORDINATED_UNIVERSAL_TIME_OFFSET ( 1, 0, .AHEAD. ) ;
#195 = DIRECTION ( 'NONE',  ( 3.491481338843133355E-15, -1.224646799147353207E-16, 1.000000000000000000 ) ) ;
#196 = CLOSED_SHELL ( 'NONE', ( #40, #15, #112, #233 ) ) ;
#197 = DIRECTION ( 'NONE',  ( 4.275831445896959482E-31, 1.000000000000000000, 1.224646799147353207E-16 ) ) ;
#198 = CARTESIAN_POINT ( 'NONE',  ( 0.0000000000000000000, 0.0000000000000000000, 0.0000000000000000000 ) ) ;
#199 = APPROVAL_PERSON_ORGANIZATION ( #45, #154, #111 ) ;
#200 = DIRECTION ( 'NONE',  ( 3.491481338843133355E-15, -1.224646799147353207E-16, 1.000000000000000000 ) ) ;
#201 = CC_DESIGN_PERSON_AND_ORGANIZATION_ASSIGNMENT ( #237, #240, ( #19 ) ) ;
#202 = AXIS2_PLACEMENT_3D ( 'NONE', #120, #200, #49 ) ;
#203 = DIRECTION ( 'NONE',  ( 4.275831445896958607E-31, 1.000000000000000000, 1.224646799147353207E-16 ) ) ;
#204 = APPLICATION_PROTOCOL_DEFINITION ( 'international standard', 'config_control_design', 1994, #36 ) ;
#205 = DIRECTION ( 'NONE',  ( 4.275831445896958607E-31, 1.000000000000000000, 1.224646799147353454E-16 ) ) ;
#206 = APPROVAL_PERSON_ORGANIZATION ( #65, #144, #216 ) ;
#207 = EDGE_CURVE ( 'NONE', #269, #269, #122, .T. ) ;
#208 = DATE_AND_TIME ( #125, #187 ) ;
#209 = ORIENTED_EDGE ( 'NONE', *, *, #91, .T. ) ;
#210 = DIRECTION ( 'NONE',  ( -8.265793752734925583E-31, -1.000000000000000000, -2.326614104046149038E-16 ) ) ;
#211 = PERSON_AND_ORGANIZATION_ROLE ( 'design_owner' ) ;
#212 = ORIENTED_EDGE ( 'NONE', *, *, #250, .F. ) ;
#213 = SECURITY_CLASSIFICATION_LEVEL ( 'unclassified' ) ;
#214 = CC_DESIGN_PERSON_AND_ORGANIZATION_ASSIGNMENT ( #276, #148, ( #119 ) ) ;
#215 = EDGE_LOOP ( 'NONE', ( #256 ) ) ;
#216 = APPROVAL_ROLE ( '' ) ;
#217 = ORIENTED_EDGE ( 'NONE', *, *, #91, .F. ) ;
#218 = COORDINATED_UNIVERSAL_TIME_OFFSET ( 1, 0, .AHEAD. ) ;
#219 = CC_DESIGN_APPROVAL ( #154, ( #54 ) ) ;
#220 = ADVANCED_FACE ( 'NONE', ( #123, #227 ), #13, .T. ) ;
#221 = AXIS2_PLACEMENT_3D ( 'NONE', #141, #4, #117 ) ;
#222 = ORIENTED_EDGE ( 'NONE', *, *, #250, .T. ) ;
#223 = CARTESIAN_POINT ( 'NONE',  ( 2.208616363432208220E-14, -7.746783377962778163E-16, 6.325728678143274664 ) ) ;
#224 = DESIGN_CONTEXT ( 'detailed design', #36, 'design' ) ;
#225 = DIRECTION ( 'NONE',  ( 4.275831445896958607E-31, 1.000000000000000000, 1.224646799147353207E-16 ) ) ;
#226 = CIRCLE ( 'NONE', #97, 0.6000000000000000888 ) ;
#227 = FACE_OUTER_BOUND ( 'NONE', #236, .T. ) ;
#228 = PLANE ( 'NONE',  #271 ) ;
#229 = DIRECTION ( 'NONE',  ( 3.491481338843133355E-15, -1.224646799147353207E-16, 1.000000000000000000 ) ) ;
#230 = FACE_OUTER_BOUND ( 'NONE', #104, .T. ) ;
#231 = CYLINDRICAL_SURFACE ( 'NONE', #155, 0.4659999999999999698 ) ;
#232 = CARTESIAN_POINT ( 'NONE',  ( 2.208616363432208220E-14, 0.7499999999999963363, 6.325728678143274664 ) ) ;
#233 = ADVANCED_FACE ( 'NONE', ( #156 ), #96, .T. ) ;
#234 = CARTESIAN_POINT ( 'NONE',  ( 1.396592535537253342E-14, 0.4659999999999994147, 4.000000000000000000 ) ) ;
#235 = APPLICATION_PROTOCOL_DEFINITION ( 'international standard', 'config_control_design', 1994, #17 ) ;
#236 = EDGE_LOOP ( 'NONE', ( #275 ) ) ;
#237 = PERSON_AND_ORGANIZATION ( #68, #139 ) ;
#238 = EDGE_LOOP ( 'NONE', ( #63 ) ) ;
#239 = AXIS2_PLACEMENT_3D ( 'NONE', #57, #195, #66 ) ;
#240 = PERSON_AND_ORGANIZATION_ROLE ( 'creator' ) ;
#241 = FACE_OUTER_BOUND ( 'NONE', #130, .T. ) ;
#242 = DIRECTION ( 'NONE',  ( 4.275831445896957731E-31, 1.000000000000000000, 1.224646799147353207E-16 ) ) ;
#243 = CARTESIAN_POINT ( 'NONE',  ( 1.042207179644675275E-13, -3.655570695454848748E-15, 29.84999999999999787 ) ) ;
#244 = AXIS2_PLACEMENT_3D ( 'NONE', #243, #268, #118 ) ;
#245 = CARTESIAN_POINT ( 'NONE',  ( 2.358499820793709242E-15, -8.272503777097776027E-17, 0.6755011961699827205 ) ) ;
#246 = DIRECTION ( 'NONE',  ( -3.491481338843133355E-15, 1.224646799147353207E-16, -1.000000000000000000 ) ) ;
#247 = DIRECTION ( 'NONE',  ( 8.265793752734925583E-31, 1.000000000000000000, 2.326614104046149038E-16 ) ) ;
#248 = CARTESIAN_POINT ( 'NONE',  ( 1.860753389504060951E-14, 0.4830370868554647590, 5.329409522551257439 ) ) ;
#249 = COORDINATED_UNIVERSAL_TIME_OFFSET ( 1, 0, .AHEAD. ) ;
#250 = EDGE_CURVE ( 'NONE', #251, #251, #150, .T. ) ;
#251 = VERTEX_POINT ( 'NONE', #103 ) ;
#252 = CARTESIAN_POINT ( 'NONE',  ( 0.0000000000000000000, 0.0000000000000000000, 0.0000000000000000000 ) ) ;
#253 = AXIS2_PLACEMENT_3D ( 'NONE', #263, #137, #159 ) ;
#254 = ADVANCED_FACE ( 'NONE', ( #241, #79 ), #262, .T. ) ;
#255 = APPROVAL_STATUS ( 'not_yet_approved' ) ;
#256 = ORIENTED_EDGE ( 'NONE', *, *, #207, .T. ) ;
#257 = EDGE_LOOP ( 'NONE', ( #129 ) ) ;
#258 = PERSON_AND_ORGANIZATION_ROLE ( 'design_supplier' ) ;
#259 = ORIENTED_EDGE ( 'NONE', *, *, #35, .F. ) ;
#260 = PERSON_AND_ORGANIZATION_ROLE ( 'classification_officer' ) ;
#261 = ADVANCED_FACE ( 'NONE', ( #143, #230 ), #177, .T. ) ;
#262 = CONICAL_SURFACE ( 'NONE', #67, 0.6000000000000000888, 0.7853981633974450594 ) ;
#263 = CARTESIAN_POINT ( 'NONE',  ( 1.396592535537253342E-14, -4.898587196589412829E-16, 4.000000000000000000 ) ) ;
#264 = DIRECTION ( 'NONE',  ( -3.491481338843133355E-15, 1.224646799147353207E-16, -1.000000000000000000 ) ) ;
#265 = CARTESIAN_POINT ( 'NONE',  ( 1.047444401652940007E-13, 4.499279347985518085E-33, 30.00000000000000000 ) ) ;
#266 = FACE_OUTER_BOUND ( 'NONE', #215, .T. ) ;
#267 = AXIS2_PLACEMENT_3D ( 'NONE', #181, #138, #203 ) ;
#268 = DIRECTION ( 'NONE',  ( -3.491481338843133355E-15, 1.224646799147353207E-16, -1.000000000000000000 ) ) ;
#269 = VERTEX_POINT ( 'NONE', #185 ) ;
#270 = VERTEX_POINT ( 'NONE', #232 ) ;
#271 = AXIS2_PLACEMENT_3D ( 'NONE', #77, #46, #74 ) ;
#272 = VERTEX_POINT ( 'NONE', #234 ) ;
#273 = PERSON_AND_ORGANIZATION ( #68, #139 ) ;
#274 = ADVANCED_FACE ( 'NONE', ( #84, #167 ), #231, .T. ) ;
#275 = ORIENTED_EDGE ( 'NONE', *, *, #168, .T. ) ;
#276 = PERSON_AND_ORGANIZATION ( #68, #139 ) ;
#277 = DATE_AND_TIME ( #279, #176 ) ;
#278 = ORIENTED_EDGE ( 'NONE', *, *, #282, .F. ) ;
#279 = CALENDAR_DATE ( 2021, 16, 12 ) ;
#280 = EDGE_LOOP ( 'NONE', ( #278 ) ) ;
#281 = PERSON_AND_ORGANIZATION ( #68, #139 ) ;
#282 = EDGE_CURVE ( 'NONE', #272, #272, #102, .T. ) ;
#283 = CIRCLE ( 'NONE', #184, 0.4660000000000000253 ) ;
ENDSEC;
END-ISO-10303-21;
