ISO-10303-21;
HEADER;
FILE_DESCRIPTION (( 'STEP AP203' ),
    '1' );
FILE_NAME ('986896.step',
    '2021-12-16T09:22:09',
    ( '' ),
    ( '' ),
    'SwSTEP 2.0',
    'SolidWorks 2019',
    '' );
FILE_SCHEMA (( 'CONFIG_CONTROL_DESIGN' ));
ENDSEC;

DATA;
#1 = DIRECTION ( 'NONE',  ( -3.491481338843133355E-15, 1.224646799147353207E-16, -1.000000000000000000 ) ) ;
#2 = PRODUCT ( '986896', '986896', '', ( #91 ) ) ;
#3 = PERSON_AND_ORGANIZATION ( #86, #233 ) ;
#4 = EDGE_LOOP ( 'NONE', ( #235 ) ) ;
#5 = EDGE_LOOP ( 'NONE', ( #46 ) ) ;
#6 = APPROVAL_STATUS ( 'not_yet_approved' ) ;
#7 = ADVANCED_FACE ( 'NONE', ( #102, #89 ), #72, .T. ) ;
#8 = EDGE_LOOP ( 'NONE', ( #260 ) ) ;
#9 = CARTESIAN_POINT ( 'NONE',  ( 0.0000000000000000000, 0.0000000000000000000, 0.0000000000000000000 ) ) ;
#10 =( LENGTH_UNIT ( ) NAMED_UNIT ( * ) SI_UNIT ( .MILLI., .METRE. ) );
#11 = LOCAL_TIME ( 10, 22, 9.000000000000000000, #44 ) ;
#12 = ADVANCED_BREP_SHAPE_REPRESENTATION ( '986896', ( #256, #162, #64 ), #200 ) ;
#13 = CLOSED_SHELL ( 'NONE', ( #279, #16, #50, #7, #71, #226, #100 ) ) ;
#14 = DIRECTION ( 'NONE',  ( 3.491481338843133355E-15, -1.224646799147353207E-16, 1.000000000000000000 ) ) ;
#15 = FACE_OUTER_BOUND ( 'NONE', #40, .T. ) ;
#16 = ADVANCED_FACE ( 'NONE', ( #212, #61 ), #210, .T. ) ;
#17 = EDGE_CURVE ( 'NONE', #143, #143, #173, .T. ) ;
#18 = PLANE ( 'NONE',  #249 ) ;
#19 = DIRECTION ( 'NONE',  ( -3.491481338843133355E-15, 1.224646799147353207E-16, -1.000000000000000000 ) ) ;
#20 = FACE_OUTER_BOUND ( 'NONE', #5, .T. ) ;
#21 = CARTESIAN_POINT ( 'NONE',  ( 2.078346527163516679E-15, -7.289858300812678837E-17, 0.5952621038072497539 ) ) ;
#22 = DIRECTION ( 'NONE',  ( 4.275831445896958607E-31, 1.000000000000000000, 1.224646799147353207E-16 ) ) ;
#23 = APPLICATION_PROTOCOL_DEFINITION ( 'international standard', 'config_control_design', 1994, #131 ) ;
#24 = AXIS2_PLACEMENT_3D ( 'NONE', #192, #1, #105 ) ;
#25 = VERTEX_POINT ( 'NONE', #109 ) ;
#26 = ORIENTED_EDGE ( 'NONE', *, *, #35, .T. ) ;
#27 =( NAMED_UNIT ( * ) SI_UNIT ( $, .STERADIAN. ) SOLID_ANGLE_UNIT ( ) );
#28 = CIRCLE ( 'NONE', #37, 0.7499999999999971134 ) ;
#29 = LOCAL_TIME ( 10, 22, 9.000000000000000000, #161 ) ;
#30 = VERTEX_POINT ( 'NONE', #261 ) ;
#31 = FACE_OUTER_BOUND ( 'NONE', #43, .T. ) ;
#32 = PERSON_AND_ORGANIZATION_ROLE ( 'classification_officer' ) ;
#33 = PERSON_AND_ORGANIZATION_ROLE ( 'design_supplier' ) ;
#34 = DIRECTION ( 'NONE',  ( -4.275831445896958607E-31, -1.000000000000000000, -1.224646799147353207E-16 ) ) ;
#35 = EDGE_CURVE ( 'NONE', #274, #274, #28, .T. ) ;
#36 = FACE_BOUND ( 'NONE', #4, .T. ) ;
#37 = AXIS2_PLACEMENT_3D ( 'NONE', #262, #63, #148 ) ;
#38 = DIRECTION ( 'NONE',  ( 4.275831445896958607E-31, 1.000000000000000000, 1.224646799147353454E-16 ) ) ;
#39 = APPROVAL ( #62, 'UNSPECIFIED' ) ;
#40 = EDGE_LOOP ( 'NONE', ( #107 ) ) ;
#41 = DIRECTION ( 'NONE',  ( 1.000000000000000000, 0.0000000000000000000, 0.0000000000000000000 ) ) ;
#42 = ORIENTED_EDGE ( 'NONE', *, *, #202, .F. ) ;
#43 = EDGE_LOOP ( 'NONE', ( #174 ) ) ;
#44 = COORDINATED_UNIVERSAL_TIME_OFFSET ( 1, 0, .AHEAD. ) ;
#45 = VERTEX_POINT ( 'NONE', #215 ) ;
#46 = ORIENTED_EDGE ( 'NONE', *, *, #58, .T. ) ;
#47 = APPROVAL_DATE_TIME ( #243, #231 ) ;
#48 = EDGE_CURVE ( 'NONE', #132, #132, #51, .T. ) ;
#49 = AXIS2_PLACEMENT_3D ( 'NONE', #99, #118, #278 ) ;
#50 = ADVANCED_FACE ( 'NONE', ( #53, #31 ), #111, .F. ) ;
#51 = CIRCLE ( 'NONE', #150, 0.4144999999999998685 ) ;
#52 = DIRECTION ( 'NONE',  ( -3.491481338843133355E-15, 1.224646799147353207E-16, -1.000000000000000000 ) ) ;
#53 = FACE_OUTER_BOUND ( 'NONE', #242, .T. ) ;
#54 = FACE_OUTER_BOUND ( 'NONE', #198, .T. ) ;
#55 = ADVANCED_FACE ( 'NONE', ( #15, #181 ), #97, .T. ) ;
#56 = DIRECTION ( 'NONE',  ( -3.491481338843133355E-15, 1.224646799147353207E-16, -1.000000000000000000 ) ) ;
#57 = DIRECTION ( 'NONE',  ( -4.275831445896958607E-31, -1.000000000000000000, -1.224646799147353207E-16 ) ) ;
#58 = EDGE_CURVE ( 'NONE', #199, #199, #76, .T. ) ;
#59 = DIRECTION ( 'NONE',  ( -3.491481338843133355E-15, 1.224646799147353207E-16, -1.000000000000000000 ) ) ;
#60 = DIRECTION ( 'NONE',  ( -3.491481338843133355E-15, 1.224646799147353207E-16, -1.000000000000000000 ) ) ;
#61 = FACE_OUTER_BOUND ( 'NONE', #103, .T. ) ;
#62 = APPROVAL_STATUS ( 'not_yet_approved' ) ;
#63 = DIRECTION ( 'NONE',  ( -3.491481338843133355E-15, 1.224646799147353207E-16, -1.000000000000000000 ) ) ;
#64 = AXIS2_PLACEMENT_3D ( 'NONE', #9, #268, #41 ) ;
#65 = ORIENTED_EDGE ( 'NONE', *, *, #77, .T. ) ;
#66 = EDGE_LOOP ( 'NONE', ( #218 ) ) ;
#67 = CALENDAR_DATE ( 2021, 16, 12 ) ;
#68 = PRODUCT_RELATED_PRODUCT_CATEGORY ( 'detail', '', ( #2 ) ) ;
#69 = AXIS2_PLACEMENT_3D ( 'NONE', #280, #96, #57 ) ;
#70 = LOCAL_TIME ( 10, 22, 9.000000000000000000, #73 ) ;
#71 = ADVANCED_FACE ( 'NONE', ( #230, #81 ), #141, .T. ) ;
#72 = CONICAL_SURFACE ( 'NONE', #115, 0.7499999999999971134, 0.2617993877991428575 ) ;
#73 = COORDINATED_UNIVERSAL_TIME_OFFSET ( 1, 0, .AHEAD. ) ;
#74 = CC_DESIGN_DATE_AND_TIME_ASSIGNMENT ( #155, #193, ( #95 ) ) ;
#75 = CARTESIAN_POINT ( 'NONE',  ( 1.047444401652940007E-13, 4.499279347985518085E-33, 30.00000000000000000 ) ) ;
#76 = CIRCLE ( 'NONE', #247, 0.4144999999999994245 ) ;
#77 = EDGE_CURVE ( 'NONE', #263, #263, #252, .T. ) ;
#78 = DIRECTION ( 'NONE',  ( 4.275831445896958607E-31, 1.000000000000000000, 1.224646799147353207E-16 ) ) ;
#79 = CARTESIAN_POINT ( 'NONE',  ( -1.563520975299514869E-31, 5.484093345991461594E-33, -4.478102053432631085E-17 ) ) ;
#80 = ORIENTED_EDGE ( 'NONE', *, *, #35, .F. ) ;
#81 = FACE_OUTER_BOUND ( 'NONE', #66, .T. ) ;
#82 = AXIS2_PLACEMENT_3D ( 'NONE', #227, #184, #78 ) ;
#83 = PERSON_AND_ORGANIZATION_ROLE ( 'creator' ) ;
#84 = EDGE_LOOP ( 'NONE', ( #26 ) ) ;
#85 =( NAMED_UNIT ( * ) PLANE_ANGLE_UNIT ( ) SI_UNIT ( $, .RADIAN. ) );
#86 = PERSON ( 'UNSPECIFIED', 'UNSPECIFIED', 'UNSPECIFIED', ('UNSPECIFIED'), ('UNSPECIFIED'), ('UNSPECIFIED') ) ;
#87 = APPROVAL_ROLE ( '' ) ;
#88 = AXIS2_PLACEMENT_3D ( 'NONE', #206, #14, #101 ) ;
#89 = FACE_OUTER_BOUND ( 'NONE', #84, .T. ) ;
#90 = APPROVAL ( #92, 'UNSPECIFIED' ) ;
#91 = MECHANICAL_CONTEXT ( 'NONE', #131, 'mechanical' ) ;
#92 = APPROVAL_STATUS ( 'not_yet_approved' ) ;
#93 = CC_DESIGN_APPROVAL ( #39, ( #95 ) ) ;
#94 = LOCAL_TIME ( 10, 22, 9.000000000000000000, #265 ) ;
#95 = PRODUCT_DEFINITION ( 'UNKNOWN', '', #253, #217 ) ;
#96 = DIRECTION ( 'NONE',  ( 3.491481338843133355E-15, -1.224646799147353207E-16, 1.000000000000000000 ) ) ;
#97 = CYLINDRICAL_SURFACE ( 'NONE', #82, 0.4144999999999996465 ) ;
#98 = DIRECTION ( 'NONE',  ( -3.491481338843133355E-15, 1.224646799147353207E-16, -1.000000000000000000 ) ) ;
#99 = CARTESIAN_POINT ( 'NONE',  ( 1.047444401652940007E-13, -3.673940397442059178E-15, 30.00000000000000000 ) ) ;
#100 = ADVANCED_FACE ( 'NONE', ( #229 ), #257, .F. ) ;
#101 = DIRECTION ( 'NONE',  ( 0.0000000000000000000, -1.000000000000000000, 0.0000000000000000000 ) ) ;
#102 = FACE_BOUND ( 'NONE', #154, .T. ) ;
#103 = EDGE_LOOP ( 'NONE', ( #172 ) ) ;
#104 = PERSON_AND_ORGANIZATION_ROLE ( 'creator' ) ;
#105 = DIRECTION ( 'NONE',  ( 0.0000000000000000000, 1.000000000000000000, 0.0000000000000000000 ) ) ;
#106 = VERTEX_POINT ( 'NONE', #130 ) ;
#107 = ORIENTED_EDGE ( 'NONE', *, *, #58, .F. ) ;
#108 = ORIENTED_EDGE ( 'NONE', *, *, #178, .F. ) ;
#109 = CARTESIAN_POINT ( 'NONE',  ( 1.843295982809844969E-14, 0.4315370868554637696, 5.279409522551256728 ) ) ;
#110 = CONICAL_SURFACE ( 'NONE', #49, 0.6000000000000000888, 0.7853981633974450594 ) ;
#111 = TOROIDAL_SURFACE ( 'NONE', #114, 0.9144999999999999796, 0.5000000000000002220 ) ;
#112 = PERSON_AND_ORGANIZATION_ROLE ( 'design_owner' ) ;
#113 = SECURITY_CLASSIFICATION_LEVEL ( 'unclassified' ) ;
#114 = AXIS2_PLACEMENT_3D ( 'NONE', #182, #117, #137 ) ;
#115 = AXIS2_PLACEMENT_3D ( 'NONE', #189, #281, #258 ) ;
#116 = DIRECTION ( 'NONE',  ( 0.0000000000000000000, 1.000000000000000000, 0.0000000000000000000 ) ) ;
#117 = DIRECTION ( 'NONE',  ( -3.491481338843133355E-15, 1.224646799147353207E-16, -1.000000000000000000 ) ) ;
#118 = DIRECTION ( 'NONE',  ( -3.491481338843133355E-15, 1.224646799147353207E-16, -1.000000000000000000 ) ) ;
#119 = DIRECTION ( 'NONE',  ( -3.491481338843133355E-15, 1.224646799147353207E-16, -1.000000000000000000 ) ) ;
#120 = AXIS2_PLACEMENT_3D ( 'NONE', #282, #119, #185 ) ;
#121 = PLANE ( 'NONE',  #164 ) ;
#122 = DIRECTION ( 'NONE',  ( 4.275831445896958607E-31, 1.000000000000000000, 1.224646799147353207E-16 ) ) ;
#123 = ORIENTED_EDGE ( 'NONE', *, *, #77, .F. ) ;
#124 = EDGE_LOOP ( 'NONE', ( #194 ) ) ;
#125 = PERSON_AND_ORGANIZATION ( #86, #233 ) ;
#126 = AXIS2_PLACEMENT_3D ( 'NONE', #259, #60, #236 ) ;
#127 = CARTESIAN_POINT ( 'NONE',  ( 1.396592535537253342E-14, -4.898587196589412829E-16, 4.000000000000000000 ) ) ;
#128 = CARTESIAN_POINT ( 'NONE',  ( 2.258265443351737324E-14, 0.7499999999999963363, 6.467929294733078649 ) ) ;
#129 = ORIENTED_EDGE ( 'NONE', *, *, #17, .T. ) ;
#130 = CARTESIAN_POINT ( 'NONE',  ( -4.731839565957903391E-32, 0.2550000000000000044, -1.355252715606880543E-17 ) ) ;
#131 = APPLICATION_CONTEXT ( 'configuration controlled 3d designs of mechanical parts and assemblies' ) ;
#132 = VERTEX_POINT ( 'NONE', #213 ) ;
#133 = PERSON_AND_ORGANIZATION ( #86, #233 ) ;
#134 = CALENDAR_DATE ( 2021, 16, 12 ) ;
#135 = CC_DESIGN_SECURITY_CLASSIFICATION ( #225, ( #253 ) ) ;
#136 = PERSON_AND_ORGANIZATION ( #86, #233 ) ;
#137 = DIRECTION ( 'NONE',  ( 4.275831445896958607E-31, 1.000000000000000000, 1.224646799147353207E-16 ) ) ;
#138 = CIRCLE ( 'NONE', #142, 0.4145000000000000351 ) ;
#139 = CC_DESIGN_APPROVAL ( #90, ( #225 ) ) ;
#140 = DIRECTION ( 'NONE',  ( 0.0000000000000000000, 1.000000000000000000, 0.0000000000000000000 ) ) ;
#141 = CYLINDRICAL_SURFACE ( 'NONE', #283, 0.7499999999999984457 ) ;
#142 = AXIS2_PLACEMENT_3D ( 'NONE', #208, #19, #116 ) ;
#143 = VERTEX_POINT ( 'NONE', #234 ) ;
#144 = EDGE_LOOP ( 'NONE', ( #123 ) ) ;
#145 = DIRECTION ( 'NONE',  ( -4.275831445896958607E-31, -1.000000000000000000, -1.224646799147353207E-16 ) ) ;
#146 = CC_DESIGN_PERSON_AND_ORGANIZATION_ASSIGNMENT ( #125, #112, ( #2 ) ) ;
#147 = CARTESIAN_POINT ( 'NONE',  ( 0.0000000000000000000, 0.0000000000000000000, 0.0000000000000000000 ) ) ;
#148 = DIRECTION ( 'NONE',  ( 0.0000000000000000000, 1.000000000000000000, 0.0000000000000000000 ) ) ;
#149 = COORDINATED_UNIVERSAL_TIME_OFFSET ( 1, 0, .AHEAD. ) ;
#150 = AXIS2_PLACEMENT_3D ( 'NONE', #127, #214, #158 ) ;
#151 = APPROVAL_PERSON_ORGANIZATION ( #196, #231, #87 ) ;
#152 = ADVANCED_FACE ( 'NONE', ( #54 ), #18, .F. ) ;
#153 = CALENDAR_DATE ( 2021, 16, 12 ) ;
#154 = EDGE_LOOP ( 'NONE', ( #108 ) ) ;
#155 = DATE_AND_TIME ( #67, #11 ) ;
#156 = CARTESIAN_POINT ( 'NONE',  ( 1.396592535537253342E-14, 0.4144999999999993689, 4.000000000000000000 ) ) ;
#157 = CIRCLE ( 'NONE', #120, 0.7499999999999998890 ) ;
#158 = DIRECTION ( 'NONE',  ( 0.0000000000000000000, 1.000000000000000000, 0.0000000000000000000 ) ) ;
#159 = CONICAL_SURFACE ( 'NONE', #88, 0.4144999999999994245, 0.2617993877991427465 ) ;
#160 = CC_DESIGN_DATE_AND_TIME_ASSIGNMENT ( #224, #250, ( #225 ) ) ;
#161 = COORDINATED_UNIVERSAL_TIME_OFFSET ( 1, 0, .AHEAD. ) ;
#162 = MANIFOLD_SOLID_BREP ( 'Corps-Déplacer/Copier1[2]', #272 ) ;
#163 = CARTESIAN_POINT ( 'NONE',  ( 1.396592535537253342E-14, -4.898587196589412829E-16, 4.000000000000000000 ) ) ;
#164 = AXIS2_PLACEMENT_3D ( 'NONE', #183, #190, #145 ) ;
#165 = CARTESIAN_POINT ( 'NONE',  ( -7.817604876497574346E-32, 2.742046672995730797E-33, -2.239051026716315543E-17 ) ) ;
#166 = DIRECTION ( 'NONE',  ( -3.491481338843133355E-15, 1.224646799147353207E-16, -1.000000000000000000 ) ) ;
#167 = DIRECTION ( 'NONE',  ( 0.0000000000000000000, 1.000000000000000000, 0.0000000000000000000 ) ) ;
#168 = CC_DESIGN_PERSON_AND_ORGANIZATION_ASSIGNMENT ( #248, #33, ( #253 ) ) ;
#169 = EDGE_LOOP ( 'NONE', ( #129 ) ) ;
#170 = DIRECTION ( 'NONE',  ( 3.491481338843133355E-15, -1.224646799147353207E-16, 1.000000000000000000 ) ) ;
#171 = EDGE_LOOP ( 'NONE', ( #237 ) ) ;
#172 = ORIENTED_EDGE ( 'NONE', *, *, #204, .T. ) ;
#173 = CIRCLE ( 'NONE', #24, 0.6000000000000000888 ) ;
#174 = ORIENTED_EDGE ( 'NONE', *, *, #178, .T. ) ;
#175 = CALENDAR_DATE ( 2021, 16, 12 ) ;
#176 = PERSON_AND_ORGANIZATION ( #86, #233 ) ;
#177 = APPROVAL_DATE_TIME ( #222, #90 ) ;
#178 = EDGE_CURVE ( 'NONE', #25, #25, #191, .T. ) ;
#179 = CC_DESIGN_PERSON_AND_ORGANIZATION_ASSIGNMENT ( #136, #32, ( #225 ) ) ;
#180 = APPROVAL_PERSON_ORGANIZATION ( #201, #39, #216 ) ;
#181 = FACE_OUTER_BOUND ( 'NONE', #171, .T. ) ;
#182 = CARTESIAN_POINT ( 'NONE',  ( 1.798112889504213678E-14, -6.505213034913026604E-16, 5.150000000000000355 ) ) ;
#183 = CARTESIAN_POINT ( 'NONE',  ( 1.396592535537253342E-14, 3.108252149566692065E-33, 4.000000000000000000 ) ) ;
#184 = DIRECTION ( 'NONE',  ( -3.491481338843133355E-15, 1.224646799147353207E-16, -1.000000000000000000 ) ) ;
#185 = DIRECTION ( 'NONE',  ( 0.0000000000000000000, 1.000000000000000000, 0.0000000000000000000 ) ) ;
#186 = FACE_OUTER_BOUND ( 'NONE', #195, .T. ) ;
#187 = ADVANCED_FACE ( 'NONE', ( #207 ), #121, .T. ) ;
#188 = PLANE ( 'NONE',  #69 ) ;
#189 = CARTESIAN_POINT ( 'NONE',  ( 2.258265443351737324E-14, -7.920928907906262685E-16, 6.467929294733078649 ) ) ;
#190 = DIRECTION ( 'NONE',  ( 3.491481338843133355E-15, -1.224646799147353207E-16, 1.000000000000000000 ) ) ;
#191 = CIRCLE ( 'NONE', #126, 0.4315370868554643802 ) ;
#192 = CARTESIAN_POINT ( 'NONE',  ( 1.047444401652940007E-13, -3.673940397442059178E-15, 30.00000000000000000 ) ) ;
#193 = DATE_TIME_ROLE ( 'creation_date' ) ;
#194 = ORIENTED_EDGE ( 'NONE', *, *, #48, .F. ) ;
#195 = EDGE_LOOP ( 'NONE', ( #42 ) ) ;
#196 = PERSON_AND_ORGANIZATION ( #86, #233 ) ;
#197 = UNCERTAINTY_MEASURE_WITH_UNIT (LENGTH_MEASURE( 1.000000000000000082E-05 ), #10, 'distance_accuracy_value', 'NONE');
#198 = EDGE_LOOP ( 'NONE', ( #240 ) ) ;
#199 = VERTEX_POINT ( 'NONE', #220 ) ;
#200 =( GEOMETRIC_REPRESENTATION_CONTEXT ( 3 ) GLOBAL_UNCERTAINTY_ASSIGNED_CONTEXT ( ( #197 ) ) GLOBAL_UNIT_ASSIGNED_CONTEXT ( ( #10, #85, #27 ) ) REPRESENTATION_CONTEXT ( 'NONE', 'WORKASPACE' ) );
#201 = PERSON_AND_ORGANIZATION ( #86, #233 ) ;
#202 = EDGE_CURVE ( 'NONE', #30, #30, #157, .T. ) ;
#203 = CALENDAR_DATE ( 2021, 16, 12 ) ;
#204 = EDGE_CURVE ( 'NONE', #45, #45, #138, .T. ) ;
#205 = AXIS2_PLACEMENT_3D ( 'NONE', #147, #59, #22 ) ;
#206 = CARTESIAN_POINT ( 'NONE',  ( 2.078346527163516679E-15, -7.289858300812678837E-17, 0.5952621038072497539 ) ) ;
#207 = FACE_OUTER_BOUND ( 'NONE', #124, .T. ) ;
#208 = CARTESIAN_POINT ( 'NONE',  ( 1.798112889504213678E-14, -6.306931015608868610E-16, 5.150000000000000355 ) ) ;
#209 = FACE_OUTER_BOUND ( 'NONE', #244, .T. ) ;
#210 = CYLINDRICAL_SURFACE ( 'NONE', #205, 0.4144999999999999241 ) ;
#211 = AXIS2_PLACEMENT_3D ( 'NONE', #163, #52, #167 ) ;
#212 = FACE_OUTER_BOUND ( 'NONE', #144, .T. ) ;
#213 = CARTESIAN_POINT ( 'NONE',  ( 1.396592535537253342E-14, 0.4144999999999993689, 4.000000000000000000 ) ) ;
#214 = DIRECTION ( 'NONE',  ( -3.491481338843133355E-15, 1.224646799147353207E-16, -1.000000000000000000 ) ) ;
#215 = CARTESIAN_POINT ( 'NONE',  ( 1.798112889504213678E-14, 0.4144999999999993689, 5.150000000000000355 ) ) ;
#216 = APPROVAL_ROLE ( '' ) ;
#217 = DESIGN_CONTEXT ( 'detailed design', #271, 'design' ) ;
#218 = ORIENTED_EDGE ( 'NONE', *, *, #202, .T. ) ;
#219 = LOCAL_TIME ( 10, 22, 9.000000000000000000, #149 ) ;
#220 = CARTESIAN_POINT ( 'NONE',  ( 2.078346527163516679E-15, 0.4144999999999993689, 0.5952621038072497539 ) ) ;
#221 = CC_DESIGN_PERSON_AND_ORGANIZATION_ASSIGNMENT ( #3, #83, ( #253 ) ) ;
#222 = DATE_AND_TIME ( #134, #29 ) ;
#223 = APPROVAL_ROLE ( '' ) ;
#224 = DATE_AND_TIME ( #203, #70 ) ;
#225 = SECURITY_CLASSIFICATION ( '', '', #113 ) ;
#226 = ADVANCED_FACE ( 'NONE', ( #186, #232 ), #110, .T. ) ;
#227 = CARTESIAN_POINT ( 'NONE',  ( 0.0000000000000000000, 0.0000000000000000000, 0.0000000000000000000 ) ) ;
#228 = AXIS2_PLACEMENT_3D ( 'NONE', #75, #56, #122 ) ;
#229 = FACE_OUTER_BOUND ( 'NONE', #8, .T. ) ;
#230 = FACE_OUTER_BOUND ( 'NONE', #266, .T. ) ;
#231 = APPROVAL ( #6, 'UNSPECIFIED' ) ;
#232 = FACE_BOUND ( 'NONE', #169, .T. ) ;
#233 = ORGANIZATION ( 'UNSPECIFIED', 'UNSPECIFIED', '' ) ;
#234 = CARTESIAN_POINT ( 'NONE',  ( 1.047444401652940007E-13, 0.5999999999999963141, 30.00000000000000000 ) ) ;
#235 = ORIENTED_EDGE ( 'NONE', *, *, #273, .F. ) ;
#236 = DIRECTION ( 'NONE',  ( 0.0000000000000000000, 1.000000000000000000, 0.0000000000000000000 ) ) ;
#237 = ORIENTED_EDGE ( 'NONE', *, *, #48, .T. ) ;
#238 = AXIS2_PLACEMENT_3D ( 'NONE', #79, #166, #255 ) ;
#240 = ORIENTED_EDGE ( 'NONE', *, *, #273, .T. ) ;
#239 = APPROVAL_PERSON_ORGANIZATION ( #133, #90, #223 ) ;
#241 = APPROVAL_DATE_TIME ( #267, #39 ) ;
#242 = EDGE_LOOP ( 'NONE', ( #264 ) ) ;
#243 = DATE_AND_TIME ( #153, #94 ) ;
#244 = EDGE_LOOP ( 'NONE', ( #65 ) ) ;
#245 = APPLICATION_PROTOCOL_DEFINITION ( 'international standard', 'config_control_design', 1994, #271 ) ;
#246 = CC_DESIGN_PERSON_AND_ORGANIZATION_ASSIGNMENT ( #176, #104, ( #95 ) ) ;
#247 = AXIS2_PLACEMENT_3D ( 'NONE', #21, #251, #140 ) ;
#248 = PERSON_AND_ORGANIZATION ( #86, #233 ) ;
#249 = AXIS2_PLACEMENT_3D ( 'NONE', #165, #170, #34 ) ;
#250 = DATE_TIME_ROLE ( 'classification_date' ) ;
#251 = DIRECTION ( 'NONE',  ( -3.491481338843133355E-15, 1.224646799147353207E-16, -1.000000000000000000 ) ) ;
#252 = CIRCLE ( 'NONE', #211, 0.4144999999999998685 ) ;
#253 = PRODUCT_DEFINITION_FORMATION_WITH_SPECIFIED_SOURCE ( 'ANY', '', #2, .NOT_KNOWN. ) ;
#254 = CARTESIAN_POINT ( 'NONE',  ( 0.0000000000000000000, 0.0000000000000000000, 0.0000000000000000000 ) ) ;
#255 = DIRECTION ( 'NONE',  ( 4.275831445896959482E-31, 1.000000000000000000, 1.224646799147353207E-16 ) ) ;
#256 = MANIFOLD_SOLID_BREP ( 'Corps-Déplacer/Copier1[1]', #13 ) ;
#257 = PLANE ( 'NONE',  #228 ) ;
#258 = DIRECTION ( 'NONE',  ( 0.0000000000000000000, -1.000000000000000000, 0.0000000000000000000 ) ) ;
#259 = CARTESIAN_POINT ( 'NONE',  ( 1.843295982809844969E-14, -6.465411973180453190E-16, 5.279409522551256728 ) ) ;
#260 = ORIENTED_EDGE ( 'NONE', *, *, #17, .F. ) ;
#261 = CARTESIAN_POINT ( 'NONE',  ( 1.042207179644675275E-13, 0.7499999999999962252, 29.84999999999999787 ) ) ;
#262 = CARTESIAN_POINT ( 'NONE',  ( 2.258265443351737324E-14, -7.920928907906262685E-16, 6.467929294733078649 ) ) ;
#263 = VERTEX_POINT ( 'NONE', #156 ) ;
#264 = ORIENTED_EDGE ( 'NONE', *, *, #204, .F. ) ;
#265 = COORDINATED_UNIVERSAL_TIME_OFFSET ( 1, 0, .AHEAD. ) ;
#266 = EDGE_LOOP ( 'NONE', ( #80 ) ) ;
#267 = DATE_AND_TIME ( #175, #219 ) ;
#268 = DIRECTION ( 'NONE',  ( 0.0000000000000000000, 0.0000000000000000000, 1.000000000000000000 ) ) ;
#269 = CC_DESIGN_APPROVAL ( #231, ( #253 ) ) ;
#270 = SHAPE_DEFINITION_REPRESENTATION ( #277, #12 ) ;
#271 = APPLICATION_CONTEXT ( 'configuration controlled 3d designs of mechanical parts and assemblies' ) ;
#272 = CLOSED_SHELL ( 'NONE', ( #152, #275, #55, #187 ) ) ;
#273 = EDGE_CURVE ( 'NONE', #106, #106, #276, .T. ) ;
#274 = VERTEX_POINT ( 'NONE', #128 ) ;
#275 = ADVANCED_FACE ( 'NONE', ( #36, #20 ), #159, .T. ) ;
#276 = CIRCLE ( 'NONE', #238, 0.2550000000000000044 ) ;
#277 = PRODUCT_DEFINITION_SHAPE ( 'NONE', 'NONE',  #95 ) ;
#278 = DIRECTION ( 'NONE',  ( 0.0000000000000000000, 1.000000000000000000, 0.0000000000000000000 ) ) ;
#279 = ADVANCED_FACE ( 'NONE', ( #209 ), #188, .F. ) ;
#280 = CARTESIAN_POINT ( 'NONE',  ( 1.396592535537253342E-14, 3.108252149566692065E-33, 4.000000000000000000 ) ) ;
#281 = DIRECTION ( 'NONE',  ( 3.491481338843133355E-15, -1.224646799147353207E-16, 1.000000000000000000 ) ) ;
#282 = CARTESIAN_POINT ( 'NONE',  ( 1.042207179644675275E-13, -3.655570695454848748E-15, 29.84999999999999787 ) ) ;
#283 = AXIS2_PLACEMENT_3D ( 'NONE', #254, #98, #38 ) ;
ENDSEC;
END-ISO-10303-21;
