ISO-10303-21;
HEADER;
FILE_DESCRIPTION (( 'STEP AP203' ),
    '1' );
FILE_NAME ('986895.step',
    '2021-12-16T09:22:08',
    ( '' ),
    ( '' ),
    'SwSTEP 2.0',
    'SolidWorks 2019',
    '' );
FILE_SCHEMA (( 'CONFIG_CONTROL_DESIGN' ));
ENDSEC;

DATA;
#1 = ADVANCED_BREP_SHAPE_REPRESENTATION ( '986895', ( #160, #257, #122 ), #52 ) ;
#2 = EDGE_LOOP ( 'NONE', ( #23 ) ) ;
#3 = EDGE_LOOP ( 'NONE', ( #95 ) ) ;
#4 = PERSON ( 'UNSPECIFIED', 'UNSPECIFIED', 'UNSPECIFIED', ('UNSPECIFIED'), ('UNSPECIFIED'), ('UNSPECIFIED') ) ;
#5 = ORIENTED_EDGE ( 'NONE', *, *, #247, .T. ) ;
#6 = CC_DESIGN_PERSON_AND_ORGANIZATION_ASSIGNMENT ( #111, #115, ( #43 ) ) ;
#7 = LOCAL_TIME ( 10, 22, 8.000000000000000000, #261 ) ;
#8 = CARTESIAN_POINT ( 'NONE',  ( 1.396592535537253342E-14, 2.718314606074609388E-33, 4.000000000000000000 ) ) ;
#9 = EDGE_LOOP ( 'NONE', ( #45 ) ) ;
#10 = DIRECTION ( 'NONE',  ( -3.491481338843133355E-15, 1.224646799147353207E-16, -1.000000000000000000 ) ) ;
#11 = CC_DESIGN_APPROVAL ( #174, ( #83 ) ) ;
#12 = DIRECTION ( 'NONE',  ( -3.491481338843133355E-15, 1.224646799147353207E-16, -1.000000000000000000 ) ) ;
#13 = CARTESIAN_POINT ( 'NONE',  ( 1.047444401652940007E-13, -3.673940397442059178E-15, 30.00000000000000000 ) ) ;
#14 = CARTESIAN_POINT ( 'NONE',  ( 1.042207179644675275E-13, -3.655570695454848748E-15, 29.84999999999999787 ) ) ;
#15 = AXIS2_PLACEMENT_3D ( 'NONE', #171, #221, #168 ) ;
#16 = PERSON_AND_ORGANIZATION ( #4, #189 ) ;
#17 = ADVANCED_FACE ( 'NONE', ( #249, #271 ), #211, .T. ) ;
#18 = EDGE_CURVE ( 'NONE', #193, #193, #113, .T. ) ;
#19 = APPROVAL_DATE_TIME ( #107, #105 ) ;
#20 = EDGE_LOOP ( 'NONE', ( #190 ) ) ;
#21 = CALENDAR_DATE ( 2021, 16, 12 ) ;
#22 = CC_DESIGN_PERSON_AND_ORGANIZATION_ASSIGNMENT ( #263, #61, ( #83 ) ) ;
#23 = ORIENTED_EDGE ( 'NONE', *, *, #133, .F. ) ;
#24 = DIRECTION ( 'NONE',  ( -3.491481338843133355E-15, 1.224646799147353207E-16, -1.000000000000000000 ) ) ;
#25 = EDGE_CURVE ( 'NONE', #145, #145, #183, .T. ) ;
#26 = DIRECTION ( 'NONE',  ( 4.275831445896957731E-31, 1.000000000000000000, 1.224646799147352961E-16 ) ) ;
#27 = DIRECTION ( 'NONE',  ( 3.491481338843133355E-15, -1.224646799147353207E-16, 1.000000000000000000 ) ) ;
#28 = AXIS2_PLACEMENT_3D ( 'NONE', #260, #12, #218 ) ;
#29 = PLANE ( 'NONE',  #206 ) ;
#30 = FACE_OUTER_BOUND ( 'NONE', #3, .T. ) ;
#31 = DIRECTION ( 'NONE',  ( 0.0000000000000000000, 1.000000000000000000, 0.0000000000000000000 ) ) ;
#32 = CALENDAR_DATE ( 2021, 16, 12 ) ;
#33 = VERTEX_POINT ( 'NONE', #58 ) ;
#34 = COORDINATED_UNIVERSAL_TIME_OFFSET ( 1, 0, .AHEAD. ) ;
#35 = CARTESIAN_POINT ( 'NONE',  ( 2.151449382310836121E-14, -7.546268600271305740E-16, 6.161995936726664347 ) ) ;
#36 = CC_DESIGN_PERSON_AND_ORGANIZATION_ASSIGNMENT ( #157, #44, ( #254 ) ) ;
#37 = APPROVAL_ROLE ( '' ) ;
#38 = FACE_OUTER_BOUND ( 'NONE', #135, .T. ) ;
#39 = AXIS2_PLACEMENT_3D ( 'NONE', #92, #270, #233 ) ;
#40 = APPROVAL_PERSON_ORGANIZATION ( #155, #105, #62 ) ;
#41 = CLOSED_SHELL ( 'NONE', ( #69, #162, #152, #77 ) ) ;
#42 = TOROIDAL_SURFACE ( 'NONE', #15, 0.8624999999999998224, 0.4999999999999998890 ) ;
#43 = SECURITY_CLASSIFICATION ( '', '', #281 ) ;
#44 = PERSON_AND_ORGANIZATION_ROLE ( 'design_supplier' ) ;
#45 = ORIENTED_EDGE ( 'NONE', *, *, #25, .T. ) ;
#46 = CARTESIAN_POINT ( 'NONE',  ( -7.040909397994356768E-32, 2.469618571754224458E-33, -2.016596600320736365E-17 ) ) ;
#47 = ADVANCED_FACE ( 'NONE', ( #118 ), #93, .F. ) ;
#48 = DIRECTION ( 'NONE',  ( -4.275831445896958607E-31, -1.000000000000000000, -1.224646799147353207E-16 ) ) ;
#49 = DIRECTION ( 'NONE',  ( -3.491481338843133355E-15, 1.224646799147353207E-16, -1.000000000000000000 ) ) ;
#50 = EDGE_LOOP ( 'NONE', ( #209 ) ) ;
#51 = AXIS2_PLACEMENT_3D ( 'NONE', #231, #24, #142 ) ;
#52 =( GEOMETRIC_REPRESENTATION_CONTEXT ( 3 ) GLOBAL_UNCERTAINTY_ASSIGNED_CONTEXT ( ( #213 ) ) GLOBAL_UNIT_ASSIGNED_CONTEXT ( ( #232, #208, #116 ) ) REPRESENTATION_CONTEXT ( 'NONE', 'WORKASPACE' ) );
#53 = DIRECTION ( 'NONE',  ( 0.0000000000000000000, 1.000000000000000000, 0.0000000000000000000 ) ) ;
#54 = CARTESIAN_POINT ( 'NONE',  ( 2.365919782978951696E-32, 0.2199999999999999734, 6.776263578034402713E-18 ) ) ;
#55 = DATE_TIME_ROLE ( 'creation_date' ) ;
#56 = CARTESIAN_POINT ( 'NONE',  ( 1.396592535537253342E-14, 0.3624999999999994338, 4.000000000000000000 ) ) ;
#57 = COORDINATED_UNIVERSAL_TIME_OFFSET ( 1, 0, .AHEAD. ) ;
#58 = CARTESIAN_POINT ( 'NONE',  ( 1.668721915867688301E-14, 0.3795370868554647781, 4.779409522551257616 ) ) ;
#59 = DATE_AND_TIME ( #259, #110 ) ;
#60 = CARTESIAN_POINT ( 'NONE',  ( 1.856829969409410848E-15, -6.512882807936090763E-17, 0.5318172400785772247 ) ) ;
#61 = PERSON_AND_ORGANIZATION_ROLE ( 'creator' ) ;
#62 = APPROVAL_ROLE ( '' ) ;
#63 = AXIS2_PLACEMENT_3D ( 'NONE', #65, #27, #159 ) ;
#64 = PERSON_AND_ORGANIZATION ( #4, #189 ) ;
#65 = CARTESIAN_POINT ( 'NONE',  ( -3.520454698997178384E-32, 1.234809285877112229E-33, -1.008298300160368183E-17 ) ) ;
#66 = EDGE_LOOP ( 'NONE', ( #212 ) ) ;
#67 = AXIS2_PLACEMENT_3D ( 'NONE', #60, #124, #31 ) ;
#68 = DIRECTION ( 'NONE',  ( 3.491481338843133355E-15, -1.224646799147353207E-16, 1.000000000000000000 ) ) ;
#69 = ADVANCED_FACE ( 'NONE', ( #266 ), #188, .F. ) ;
#70 = EDGE_LOOP ( 'NONE', ( #97 ) ) ;
#71 = CARTESIAN_POINT ( 'NONE',  ( 0.0000000000000000000, 0.0000000000000000000, 0.0000000000000000000 ) ) ;
#72 = EDGE_CURVE ( 'NONE', #33, #33, #172, .T. ) ;
#73 = DIRECTION ( 'NONE',  ( -3.491481338843133355E-15, 1.224646799147353207E-16, -1.000000000000000000 ) ) ;
#74 = VERTEX_POINT ( 'NONE', #56 ) ;
#75 = EDGE_CURVE ( 'NONE', #74, #74, #166, .T. ) ;
#76 = PERSON_AND_ORGANIZATION_ROLE ( 'design_owner' ) ;
#77 = ADVANCED_FACE ( 'NONE', ( #235 ), #29, .T. ) ;
#78 = DIRECTION ( 'NONE',  ( 0.0000000000000000000, -1.000000000000000000, 0.0000000000000000000 ) ) ;
#79 = CONICAL_SURFACE ( 'NONE', #200, 0.3624999999999994893, 0.2617993877991428575 ) ;
#80 = LOCAL_TIME ( 10, 22, 8.000000000000000000, #227 ) ;
#81 = CARTESIAN_POINT ( 'NONE',  ( 1.047444401652940007E-13, -3.673940397442059178E-15, 30.00000000000000000 ) ) ;
#82 = DIRECTION ( 'NONE',  ( -3.491481338843133355E-15, 1.224646799147353207E-16, -1.000000000000000000 ) ) ;
#83 = PRODUCT_DEFINITION ( 'UNKNOWN', '', #254, #98 ) ;
#84 = EDGE_LOOP ( 'NONE', ( #182 ) ) ;
#85 = DATE_TIME_ROLE ( 'classification_date' ) ;
#86 = CIRCLE ( 'NONE', #67, 0.3624999999999994893 ) ;
#87 = VERTEX_POINT ( 'NONE', #262 ) ;
#88 = EDGE_LOOP ( 'NONE', ( #5 ) ) ;
#89 = SHAPE_DEFINITION_REPRESENTATION ( #197, #1 ) ;
#90 = AXIS2_PLACEMENT_3D ( 'NONE', #128, #102, #196 ) ;
#91 = ORIENTED_EDGE ( 'NONE', *, *, #133, .T. ) ;
#92 = CARTESIAN_POINT ( 'NONE',  ( 1.668721915867688301E-14, -5.853088573606777450E-16, 4.779409522551257616 ) ) ;
#93 = PLANE ( 'NONE',  #245 ) ;
#94 = PRODUCT ( '986895', '986895', '', ( #96 ) ) ;
#95 = ORIENTED_EDGE ( 'NONE', *, *, #267, .F. ) ;
#96 = MECHANICAL_CONTEXT ( 'NONE', #226, 'mechanical' ) ;
#97 = ORIENTED_EDGE ( 'NONE', *, *, #267, .T. ) ;
#98 = DESIGN_CONTEXT ( 'detailed design', #176, 'design' ) ;
#99 = DIRECTION ( 'NONE',  ( 0.0000000000000000000, 1.000000000000000000, 0.0000000000000000000 ) ) ;
#100 = CONICAL_SURFACE ( 'NONE', #173, 0.6000000000000000888, 0.7853981633974450594 ) ;
#101 = CYLINDRICAL_SURFACE ( 'NONE', #207, 0.7499999999999984457 ) ;
#102 = DIRECTION ( 'NONE',  ( -3.491481338843133355E-15, 1.224646799147353207E-16, -1.000000000000000000 ) ) ;
#103 = CARTESIAN_POINT ( 'NONE',  ( 0.0000000000000000000, 0.0000000000000000000, 0.0000000000000000000 ) ) ;
#104 = CYLINDRICAL_SURFACE ( 'NONE', #28, 0.3624999999999997113 ) ;
#105 = APPROVAL ( #202, 'UNSPECIFIED' ) ;
#106 = APPROVAL_STATUS ( 'not_yet_approved' ) ;
#107 = DATE_AND_TIME ( #21, #80 ) ;
#108 = AXIS2_PLACEMENT_3D ( 'NONE', #234, #186, #268 ) ;
#109 = VERTEX_POINT ( 'NONE', #225 ) ;
#110 = LOCAL_TIME ( 10, 22, 8.000000000000000000, #34 ) ;
#111 = PERSON_AND_ORGANIZATION ( #4, #189 ) ;
#112 = CC_DESIGN_PERSON_AND_ORGANIZATION_ASSIGNMENT ( #16, #76, ( #94 ) ) ;
#113 = CIRCLE ( 'NONE', #246, 0.2199999999999999734 ) ;
#114 = DIRECTION ( 'NONE',  ( -3.491481338843133355E-15, 1.224646799147353207E-16, -1.000000000000000000 ) ) ;
#115 = PERSON_AND_ORGANIZATION_ROLE ( 'classification_officer' ) ;
#116 =( NAMED_UNIT ( * ) SI_UNIT ( $, .STERADIAN. ) SOLID_ANGLE_UNIT ( ) );
#117 = EDGE_LOOP ( 'NONE', ( #264 ) ) ;
#118 = FACE_OUTER_BOUND ( 'NONE', #88, .T. ) ;
#119 = DIRECTION ( 'NONE',  ( -3.491481338843133355E-15, 1.224646799147353207E-16, -1.000000000000000000 ) ) ;
#120 = CLOSED_SHELL ( 'NONE', ( #47, #17, #185, #134, #199, #205, #158 ) ) ;
#121 = DIRECTION ( 'NONE',  ( 1.000000000000000000, 0.0000000000000000000, 0.0000000000000000000 ) ) ;
#122 = AXIS2_PLACEMENT_3D ( 'NONE', #214, #164, #121 ) ;
#123 = CARTESIAN_POINT ( 'NONE',  ( 2.151449382310836121E-14, -7.546268600271305740E-16, 6.161995936726664347 ) ) ;
#124 = DIRECTION ( 'NONE',  ( -3.491481338843133355E-15, 1.224646799147353207E-16, -1.000000000000000000 ) ) ;
#125 = PLANE ( 'NONE',  #180 ) ;
#126 = APPROVAL_ROLE ( '' ) ;
#127 = CARTESIAN_POINT ( 'NONE',  ( 2.151449382310836121E-14, 0.7499999999999963363, 6.161995936726664347 ) ) ;
#128 = CARTESIAN_POINT ( 'NONE',  ( 1.396592535537253342E-14, -4.898587196589412829E-16, 4.000000000000000000 ) ) ;
#129 = FACE_OUTER_BOUND ( 'NONE', #66, .T. ) ;
#130 = DATE_AND_TIME ( #153, #240 ) ;
#131 = APPROVAL_PERSON_ORGANIZATION ( #150, #236, #126 ) ;
#132 = DATE_AND_TIME ( #32, #7 ) ;
#133 = EDGE_CURVE ( 'NONE', #146, #146, #223, .T. ) ;
#134 = ADVANCED_FACE ( 'NONE', ( #191, #38 ), #138, .T. ) ;
#135 = EDGE_LOOP ( 'NONE', ( #91 ) ) ;
#136 = ORIENTED_EDGE ( 'NONE', *, *, #181, .F. ) ;
#137 = EDGE_LOOP ( 'NONE', ( #136 ) ) ;
#138 = CONICAL_SURFACE ( 'NONE', #278, 0.7499999999999971134, 0.2617993877991425800 ) ;
#139 = DIRECTION ( 'NONE',  ( 4.275831445896958607E-31, 1.000000000000000000, 1.224646799147353207E-16 ) ) ;
#140 = DIRECTION ( 'NONE',  ( 3.491481338843133355E-15, -1.224646799147353207E-16, 1.000000000000000000 ) ) ;
#141 = ORIENTED_EDGE ( 'NONE', *, *, #181, .T. ) ;
#142 = DIRECTION ( 'NONE',  ( 0.0000000000000000000, 1.000000000000000000, 0.0000000000000000000 ) ) ;
#143 = AXIS2_PLACEMENT_3D ( 'NONE', #81, #10, #242 ) ;
#144 = CARTESIAN_POINT ( 'NONE',  ( 1.047444401652940007E-13, 4.499279347985518085E-33, 30.00000000000000000 ) ) ;
#145 = VERTEX_POINT ( 'NONE', #238 ) ;
#146 = VERTEX_POINT ( 'NONE', #127 ) ;
#147 = APPROVAL_DATE_TIME ( #130, #236 ) ;
#148 = CC_DESIGN_SECURITY_CLASSIFICATION ( #43, ( #254 ) ) ;
#149 = VERTEX_POINT ( 'NONE', #241 ) ;
#150 = PERSON_AND_ORGANIZATION ( #4, #189 ) ;
#151 = FACE_OUTER_BOUND ( 'NONE', #2, .T. ) ;
#152 = ADVANCED_FACE ( 'NONE', ( #256, #129 ), #104, .T. ) ;
#153 = CALENDAR_DATE ( 2021, 16, 12 ) ;
#154 = CC_DESIGN_APPROVAL ( #105, ( #43 ) ) ;
#155 = PERSON_AND_ORGANIZATION ( #4, #189 ) ;
#156 = PERSON_AND_ORGANIZATION_ROLE ( 'creator' ) ;
#157 = PERSON_AND_ORGANIZATION ( #4, #189 ) ;
#158 = ADVANCED_FACE ( 'NONE', ( #239 ), #125, .F. ) ;
#159 = DIRECTION ( 'NONE',  ( -4.275831445896958607E-31, -1.000000000000000000, -1.224646799147353207E-16 ) ) ;
#160 = MANIFOLD_SOLID_BREP ( 'Corps-Déplacer/Copier1[1]', #120 ) ;
#161 = EDGE_LOOP ( 'NONE', ( #228 ) ) ;
#162 = ADVANCED_FACE ( 'NONE', ( #219, #175 ), #79, .T. ) ;
#163 = EDGE_LOOP ( 'NONE', ( #216 ) ) ;
#164 = DIRECTION ( 'NONE',  ( 0.0000000000000000000, 0.0000000000000000000, 1.000000000000000000 ) ) ;
#165 = EDGE_LOOP ( 'NONE', ( #141 ) ) ;
#166 = CIRCLE ( 'NONE', #51, 0.3624999999999999334 ) ;
#167 = LOCAL_TIME ( 10, 22, 8.000000000000000000, #282 ) ;
#168 = DIRECTION ( 'NONE',  ( 4.275831445896958607E-31, 1.000000000000000000, 1.224646799147353207E-16 ) ) ;
#169 = FACE_OUTER_BOUND ( 'NONE', #204, .T. ) ;
#170 = PERSON_AND_ORGANIZATION ( #4, #189 ) ;
#171 = CARTESIAN_POINT ( 'NONE',  ( 1.623538822562057326E-14, -5.421010862427522170E-16, 4.650000000000000355 ) ) ;
#172 = CIRCLE ( 'NONE', #39, 0.3795370868554653332 ) ;
#173 = AXIS2_PLACEMENT_3D ( 'NONE', #13, #82, #53 ) ;
#174 = APPROVAL ( #277, 'UNSPECIFIED' ) ;
#175 = FACE_OUTER_BOUND ( 'NONE', #165, .T. ) ;
#176 = APPLICATION_CONTEXT ( 'configuration controlled 3d designs of mechanical parts and assemblies' ) ;
#177 = CC_DESIGN_DATE_AND_TIME_ASSIGNMENT ( #248, #85, ( #43 ) ) ;
#178 = APPLICATION_PROTOCOL_DEFINITION ( 'international standard', 'config_control_design', 1994, #176 ) ;
#179 = APPROVAL_DATE_TIME ( #59, #174 ) ;
#180 = AXIS2_PLACEMENT_3D ( 'NONE', #144, #73, #255 ) ;
#181 = EDGE_CURVE ( 'NONE', #149, #149, #86, .T. ) ;
#182 = ORIENTED_EDGE ( 'NONE', *, *, #220, .F. ) ;
#183 = CIRCLE ( 'NONE', #108, 0.3625000000000000444 ) ;
#184 = PRODUCT_RELATED_PRODUCT_CATEGORY ( 'detail', '', ( #94 ) ) ;
#185 = ADVANCED_FACE ( 'NONE', ( #169, #217 ), #42, .F. ) ;
#186 = DIRECTION ( 'NONE',  ( -3.491481338843133355E-15, 1.224646799147353207E-16, -1.000000000000000000 ) ) ;
#187 = CARTESIAN_POINT ( 'NONE',  ( 1.396592535537253342E-14, 2.718314606074609388E-33, 4.000000000000000000 ) ) ;
#188 = PLANE ( 'NONE',  #63 ) ;
#189 = ORGANIZATION ( 'UNSPECIFIED', 'UNSPECIFIED', '' ) ;
#190 = ORIENTED_EDGE ( 'NONE', *, *, #247, .F. ) ;
#191 = FACE_BOUND ( 'NONE', #253, .T. ) ;
#192 = CC_DESIGN_PERSON_AND_ORGANIZATION_ASSIGNMENT ( #64, #156, ( #254 ) ) ;
#193 = VERTEX_POINT ( 'NONE', #54 ) ;
#194 = CIRCLE ( 'NONE', #224, 0.7499999999999998890 ) ;
#195 = DIRECTION ( 'NONE',  ( 4.275831445896958607E-31, 1.000000000000000000, 1.224646799147353454E-16 ) ) ;
#196 = DIRECTION ( 'NONE',  ( 0.0000000000000000000, 1.000000000000000000, 0.0000000000000000000 ) ) ;
#197 = PRODUCT_DEFINITION_SHAPE ( 'NONE', 'NONE',  #83 ) ;
#198 = DIRECTION ( 'NONE',  ( 3.491481338843133355E-15, -1.224646799147353207E-16, 1.000000000000000000 ) ) ;
#199 = ADVANCED_FACE ( 'NONE', ( #151, #237 ), #101, .T. ) ;
#200 = AXIS2_PLACEMENT_3D ( 'NONE', #201, #279, #222 ) ;
#201 = CARTESIAN_POINT ( 'NONE',  ( 1.856829969409410848E-15, -6.512882807936090763E-17, 0.5318172400785772247 ) ) ;
#202 = APPROVAL_STATUS ( 'not_yet_approved' ) ;
#203 = AXIS2_PLACEMENT_3D ( 'NONE', #71, #49, #26 ) ;
#204 = EDGE_LOOP ( 'NONE', ( #272 ) ) ;
#205 = ADVANCED_FACE ( 'NONE', ( #30, #275 ), #100, .T. ) ;
#206 = AXIS2_PLACEMENT_3D ( 'NONE', #187, #68, #252 ) ;
#207 = AXIS2_PLACEMENT_3D ( 'NONE', #103, #276, #195 ) ;
#208 =( NAMED_UNIT ( * ) PLANE_ANGLE_UNIT ( ) SI_UNIT ( $, .RADIAN. ) );
#209 = ORIENTED_EDGE ( 'NONE', *, *, #72, .T. ) ;
#210 = CC_DESIGN_DATE_AND_TIME_ASSIGNMENT ( #132, #55, ( #83 ) ) ;
#211 = CYLINDRICAL_SURFACE ( 'NONE', #203, 0.3624999999999999889 ) ;
#212 = ORIENTED_EDGE ( 'NONE', *, *, #75, .T. ) ;
#213 = UNCERTAINTY_MEASURE_WITH_UNIT (LENGTH_MEASURE( 1.000000000000000082E-05 ), #232, 'distance_accuracy_value', 'NONE');
#214 = CARTESIAN_POINT ( 'NONE',  ( 0.0000000000000000000, 0.0000000000000000000, 0.0000000000000000000 ) ) ;
#215 = DIRECTION ( 'NONE',  ( 0.0000000000000000000, 1.000000000000000000, 0.0000000000000000000 ) ) ;
#216 = ORIENTED_EDGE ( 'NONE', *, *, #220, .T. ) ;
#217 = FACE_OUTER_BOUND ( 'NONE', #50, .T. ) ;
#218 = DIRECTION ( 'NONE',  ( 4.275831445896958607E-31, 1.000000000000000000, 1.224646799147353454E-16 ) ) ;
#219 = FACE_BOUND ( 'NONE', #161, .T. ) ;
#220 = EDGE_CURVE ( 'NONE', #87, #87, #274, .T. ) ;
#221 = DIRECTION ( 'NONE',  ( -3.491481338843133355E-15, 1.224646799147353207E-16, -1.000000000000000000 ) ) ;
#222 = DIRECTION ( 'NONE',  ( 0.0000000000000000000, -1.000000000000000000, 0.0000000000000000000 ) ) ;
#223 = CIRCLE ( 'NONE', #273, 0.7499999999999971134 ) ;
#224 = AXIS2_PLACEMENT_3D ( 'NONE', #14, #258, #99 ) ;
#225 = CARTESIAN_POINT ( 'NONE',  ( 1.042207179644675275E-13, 0.7499999999999962252, 29.84999999999999787 ) ) ;
#226 = APPLICATION_CONTEXT ( 'configuration controlled 3d designs of mechanical parts and assemblies' ) ;
#227 = COORDINATED_UNIVERSAL_TIME_OFFSET ( 1, 0, .AHEAD. ) ;
#228 = ORIENTED_EDGE ( 'NONE', *, *, #18, .F. ) ;
#229 = ORIENTED_EDGE ( 'NONE', *, *, #72, .F. ) ;
#230 = CIRCLE ( 'NONE', #90, 0.3624999999999999334 ) ;
#231 = CARTESIAN_POINT ( 'NONE',  ( 1.396592535537253342E-14, -4.898587196589412829E-16, 4.000000000000000000 ) ) ;
#232 =( LENGTH_UNIT ( ) NAMED_UNIT ( * ) SI_UNIT ( .MILLI., .METRE. ) );
#233 = DIRECTION ( 'NONE',  ( 0.0000000000000000000, 1.000000000000000000, 0.0000000000000000000 ) ) ;
#234 = CARTESIAN_POINT ( 'NONE',  ( 1.623538822562057326E-14, -5.694607616035192869E-16, 4.650000000000000355 ) ) ;
#235 = FACE_OUTER_BOUND ( 'NONE', #117, .T. ) ;
#236 = APPROVAL ( #106, 'UNSPECIFIED' ) ;
#237 = FACE_OUTER_BOUND ( 'NONE', #70, .T. ) ;
#238 = CARTESIAN_POINT ( 'NONE',  ( 1.623538822562057326E-14, 0.3624999999999994338, 4.650000000000000355 ) ) ;
#239 = FACE_OUTER_BOUND ( 'NONE', #84, .T. ) ;
#240 = LOCAL_TIME ( 10, 22, 8.000000000000000000, #57 ) ;
#241 = CARTESIAN_POINT ( 'NONE',  ( 1.856829969409410848E-15, 0.3624999999999994338, 0.5318172400785772247 ) ) ;
#242 = DIRECTION ( 'NONE',  ( 0.0000000000000000000, 1.000000000000000000, 0.0000000000000000000 ) ) ;
#243 = CARTESIAN_POINT ( 'NONE',  ( 1.396592535537253342E-14, 0.3624999999999994338, 4.000000000000000000 ) ) ;
#244 = CALENDAR_DATE ( 2021, 16, 12 ) ;
#245 = AXIS2_PLACEMENT_3D ( 'NONE', #8, #140, #48 ) ;
#246 = AXIS2_PLACEMENT_3D ( 'NONE', #46, #114, #139 ) ;
#247 = EDGE_CURVE ( 'NONE', #265, #265, #230, .T. ) ;
#248 = DATE_AND_TIME ( #244, #167 ) ;
#249 = FACE_OUTER_BOUND ( 'NONE', #20, .T. ) ;
#250 = APPLICATION_PROTOCOL_DEFINITION ( 'international standard', 'config_control_design', 1994, #226 ) ;
#251 = EDGE_LOOP ( 'NONE', ( #280 ) ) ;
#252 = DIRECTION ( 'NONE',  ( -4.275831445896958607E-31, -1.000000000000000000, -1.224646799147353207E-16 ) ) ;
#253 = EDGE_LOOP ( 'NONE', ( #229 ) ) ;
#254 = PRODUCT_DEFINITION_FORMATION_WITH_SPECIFIED_SOURCE ( 'ANY', '', #94, .NOT_KNOWN. ) ;
#255 = DIRECTION ( 'NONE',  ( 4.275831445896958607E-31, 1.000000000000000000, 1.224646799147353207E-16 ) ) ;
#256 = FACE_OUTER_BOUND ( 'NONE', #137, .T. ) ;
#257 = MANIFOLD_SOLID_BREP ( 'Corps-Déplacer/Copier1[2]', #41 ) ;
#258 = DIRECTION ( 'NONE',  ( -3.491481338843133355E-15, 1.224646799147353207E-16, -1.000000000000000000 ) ) ;
#259 = CALENDAR_DATE ( 2021, 16, 12 ) ;
#260 = CARTESIAN_POINT ( 'NONE',  ( 0.0000000000000000000, 0.0000000000000000000, 0.0000000000000000000 ) ) ;
#261 = COORDINATED_UNIVERSAL_TIME_OFFSET ( 1, 0, .AHEAD. ) ;
#262 = CARTESIAN_POINT ( 'NONE',  ( 1.047444401652940007E-13, 0.5999999999999963141, 30.00000000000000000 ) ) ;
#263 = PERSON_AND_ORGANIZATION ( #4, #189 ) ;
#264 = ORIENTED_EDGE ( 'NONE', *, *, #75, .F. ) ;
#265 = VERTEX_POINT ( 'NONE', #243 ) ;
#266 = FACE_OUTER_BOUND ( 'NONE', #251, .T. ) ;
#267 = EDGE_CURVE ( 'NONE', #109, #109, #194, .T. ) ;
#268 = DIRECTION ( 'NONE',  ( 0.0000000000000000000, 1.000000000000000000, 0.0000000000000000000 ) ) ;
#269 = APPROVAL_PERSON_ORGANIZATION ( #170, #174, #37 ) ;
#270 = DIRECTION ( 'NONE',  ( -3.491481338843133355E-15, 1.224646799147353207E-16, -1.000000000000000000 ) ) ;
#271 = FACE_OUTER_BOUND ( 'NONE', #9, .T. ) ;
#272 = ORIENTED_EDGE ( 'NONE', *, *, #25, .F. ) ;
#273 = AXIS2_PLACEMENT_3D ( 'NONE', #123, #119, #215 ) ;
#274 = CIRCLE ( 'NONE', #143, 0.6000000000000000888 ) ;
#275 = FACE_BOUND ( 'NONE', #163, .T. ) ;
#276 = DIRECTION ( 'NONE',  ( -3.491481338843133355E-15, 1.224646799147353207E-16, -1.000000000000000000 ) ) ;
#277 = APPROVAL_STATUS ( 'not_yet_approved' ) ;
#278 = AXIS2_PLACEMENT_3D ( 'NONE', #35, #198, #78 ) ;
#279 = DIRECTION ( 'NONE',  ( 3.491481338843133355E-15, -1.224646799147353207E-16, 1.000000000000000000 ) ) ;
#280 = ORIENTED_EDGE ( 'NONE', *, *, #18, .T. ) ;
#281 = SECURITY_CLASSIFICATION_LEVEL ( 'unclassified' ) ;
#282 = COORDINATED_UNIVERSAL_TIME_OFFSET ( 1, 0, .AHEAD. ) ;
#283 = CC_DESIGN_APPROVAL ( #236, ( #254 ) ) ;
ENDSEC;
END-ISO-10303-21;
