ISO-10303-21;
HEADER;
FILE_DESCRIPTION (( 'STEP AP203' ),
    '1' );
FILE_NAME ('986894.step',
    '2021-12-16T09:22:08',
    ( '' ),
    ( '' ),
    'SwSTEP 2.0',
    'SolidWorks 2019',
    '' );
FILE_SCHEMA (( 'CONFIG_CONTROL_DESIGN' ));
ENDSEC;

DATA;
#1 = DIRECTION ( 'NONE',  ( 4.275831445896958607E-31, 1.000000000000000000, 1.224646799147353207E-16 ) ) ;
#2 = TOROIDAL_SURFACE ( 'NONE', #185, 0.8109999999999999432, 0.4999999999999997780 ) ;
#3 = CC_DESIGN_APPROVAL ( #282, ( #104 ) ) ;
#4 = EDGE_LOOP ( 'NONE', ( #241 ) ) ;
#5 = EDGE_LOOP ( 'NONE', ( #68 ) ) ;
#6 = CALENDAR_DATE ( 2021, 16, 12 ) ;
#7 = PERSON_AND_ORGANIZATION ( #235, #63 ) ;
#8 = ADVANCED_FACE ( 'NONE', ( #191 ), #135, .T. ) ;
#9 = CARTESIAN_POINT ( 'NONE',  ( 1.396592535537253342E-14, 2.332126462039181451E-33, 4.000000000000000000 ) ) ;
#10 = DIRECTION ( 'NONE',  ( 0.0000000000000000000, 1.000000000000000000, 0.0000000000000000000 ) ) ;
#11 = DATE_AND_TIME ( #15, #101 ) ;
#12 = CIRCLE ( 'NONE', #232, 0.7499999999999998890 ) ;
#13 = DIRECTION ( 'NONE',  ( 0.0000000000000000000, 1.000000000000000000, 0.0000000000000000000 ) ) ;
#14 = DIRECTION ( 'NONE',  ( 0.0000000000000000000, -1.000000000000000000, 0.0000000000000000000 ) ) ;
#15 = CALENDAR_DATE ( 2021, 16, 12 ) ;
#16 = PERSON_AND_ORGANIZATION ( #235, #63 ) ;
#17 = APPROVAL_PERSON_ORGANIZATION ( #16, #282, #118 ) ;
#18 = COORDINATED_UNIVERSAL_TIME_OFFSET ( 1, 0, .AHEAD. ) ;
#19 = CC_DESIGN_PERSON_AND_ORGANIZATION_ASSIGNMENT ( #265, #47, ( #53 ) ) ;
#20 = DIRECTION ( 'NONE',  ( -3.491481338843133355E-15, 1.224646799147353207E-16, -1.000000000000000000 ) ) ;
#21 = FACE_OUTER_BOUND ( 'NONE', #51, .T. ) ;
#22 = EDGE_CURVE ( 'NONE', #248, #248, #208, .T. ) ;
#23 = CIRCLE ( 'NONE', #271, 0.1900000000000000300 ) ;
#24 = EDGE_LOOP ( 'NONE', ( #176 ) ) ;
#25 = PRODUCT ( '986894', '986894', '', ( #179 ) ) ;
#26 = ADVANCED_FACE ( 'NONE', ( #147, #283 ), #45, .T. ) ;
#27 = APPLICATION_PROTOCOL_DEFINITION ( 'international standard', 'config_control_design', 1994, #279 ) ;
#28 = ORIENTED_EDGE ( 'NONE', *, *, #60, .F. ) ;
#29 = DIRECTION ( 'NONE',  ( 4.275831445896958607E-31, 1.000000000000000000, 1.224646799147353207E-16 ) ) ;
#30 = ADVANCED_FACE ( 'NONE', ( #86 ), #219, .F. ) ;
#31 = CARTESIAN_POINT ( 'NONE',  ( 0.0000000000000000000, 0.0000000000000000000, 0.0000000000000000000 ) ) ;
#32 = DIRECTION ( 'NONE',  ( 3.491481338843133355E-15, -1.224646799147353207E-16, 1.000000000000000000 ) ) ;
#33 = VERTEX_POINT ( 'NONE', #100 ) ;
#34 = FACE_OUTER_BOUND ( 'NONE', #129, .T. ) ;
#35 = DIRECTION ( 'NONE',  ( 3.491481338843133355E-15, -1.224646799147353207E-16, 1.000000000000000000 ) ) ;
#36 = DIRECTION ( 'NONE',  ( -3.491481338843133355E-15, 1.224646799147353207E-16, -1.000000000000000000 ) ) ;
#37 = AXIS2_PLACEMENT_3D ( 'NONE', #57, #35, #119 ) ;
#38 = SECURITY_CLASSIFICATION_LEVEL ( 'unclassified' ) ;
#39 = FACE_OUTER_BOUND ( 'NONE', #114, .T. ) ;
#40 = DIRECTION ( 'NONE',  ( 4.275831445896958607E-31, 1.000000000000000000, 1.224646799147353454E-16 ) ) ;
#41 = DIRECTION ( 'NONE',  ( 4.275831445896958607E-31, 1.000000000000000000, 1.224646799147353454E-16 ) ) ;
#42 = EDGE_LOOP ( 'NONE', ( #72 ) ) ;
#43 = AXIS2_PLACEMENT_3D ( 'NONE', #164, #204, #55 ) ;
#44 = APPROVAL_STATUS ( 'not_yet_approved' ) ;
#45 = CONICAL_SURFACE ( 'NONE', #62, 0.3109999999999996101, 0.2617993877991426910 ) ;
#46 = ORIENTED_EDGE ( 'NONE', *, *, #136, .T. ) ;
#47 = PERSON_AND_ORGANIZATION_ROLE ( 'creator' ) ;
#48 = DIRECTION ( 'NONE',  ( -4.275831445896958607E-31, -1.000000000000000000, -1.224646799147353207E-16 ) ) ;
#49 = EDGE_CURVE ( 'NONE', #187, #187, #112, .T. ) ;
#50 =( LENGTH_UNIT ( ) NAMED_UNIT ( * ) SI_UNIT ( .MILLI., .METRE. ) );
#51 = EDGE_LOOP ( 'NONE', ( #71 ) ) ;
#52 = CIRCLE ( 'NONE', #243, 0.6000000000000000888 ) ;
#53 = PRODUCT_DEFINITION_FORMATION_WITH_SPECIFIED_SOURCE ( 'ANY', '', #25, .NOT_KNOWN. ) ;
#54 = FACE_OUTER_BOUND ( 'NONE', #5, .T. ) ;
#55 = DIRECTION ( 'NONE',  ( 6.192700785811055591E-31, 1.000000000000000000, 1.743090309462227983E-16 ) ) ;
#56 = VERTEX_POINT ( 'NONE', #276 ) ;
#57 = CARTESIAN_POINT ( 'NONE',  ( 1.396592535537253342E-14, 2.332126462039181451E-33, 4.000000000000000000 ) ) ;
#58 = CC_DESIGN_DATE_AND_TIME_ASSIGNMENT ( #255, #64, ( #244 ) ) ;
#59 = APPROVAL_STATUS ( 'not_yet_approved' ) ;
#60 = EDGE_CURVE ( 'NONE', #56, #56, #23, .T. ) ;
#61 = CALENDAR_DATE ( 2021, 16, 12 ) ;
#62 = AXIS2_PLACEMENT_3D ( 'NONE', #172, #32, #133 ) ;
#63 = ORGANIZATION ( 'UNSPECIFIED', 'UNSPECIFIED', '' ) ;
#64 = DATE_TIME_ROLE ( 'classification_date' ) ;
#65 = DIRECTION ( 'NONE',  ( 4.275831445896958607E-31, 1.000000000000000000, 1.224646799147353207E-16 ) ) ;
#66 = DIRECTION ( 'NONE',  ( 0.0000000000000000000, 1.000000000000000000, 0.0000000000000000000 ) ) ;
#67 = CARTESIAN_POINT ( 'NONE',  ( -2.879079982112635863E-32, 1.009845318477833999E-33, -8.246012802882656084E-18 ) ) ;
#68 = ORIENTED_EDGE ( 'NONE', *, *, #22, .T. ) ;
#69 = DIRECTION ( 'NONE',  ( 0.0000000000000000000, 1.000000000000000000, 0.0000000000000000000 ) ) ;
#70 = EDGE_LOOP ( 'NONE', ( #263 ) ) ;
#71 = ORIENTED_EDGE ( 'NONE', *, *, #60, .T. ) ;
#72 = ORIENTED_EDGE ( 'NONE', *, *, #49, .T. ) ;
#73 = CARTESIAN_POINT ( 'NONE',  ( -5.758159964225271726E-32, 2.019690636955667997E-33, -1.649202560576531217E-17 ) ) ;
#74 = VERTEX_POINT ( 'NONE', #165 ) ;
#75 = AXIS2_PLACEMENT_3D ( 'NONE', #254, #115, #29 ) ;
#76 = CC_DESIGN_APPROVAL ( #199, ( #53 ) ) ;
#77 = PRODUCT_DEFINITION_SHAPE ( 'NONE', 'NONE',  #104 ) ;
#78 = FACE_OUTER_BOUND ( 'NONE', #111, .T. ) ;
#79 = DIRECTION ( 'NONE',  ( 4.275831445896958607E-31, 1.000000000000000000, 1.224646799147353207E-16 ) ) ;
#80 = CARTESIAN_POINT ( 'NONE',  ( 1.042207179644675275E-13, 0.7499999999999962252, 29.84999999999999787 ) ) ;
#81 = CALENDAR_DATE ( 2021, 16, 12 ) ;
#82 = CC_DESIGN_DATE_AND_TIME_ASSIGNMENT ( #134, #97, ( #104 ) ) ;
#83 = MANIFOLD_SOLID_BREP ( 'Corps-Déplacer/Copier1[1]', #148 ) ;
#84 = APPROVAL_ROLE ( '' ) ;
#85 = FACE_OUTER_BOUND ( 'NONE', #42, .T. ) ;
#86 = FACE_OUTER_BOUND ( 'NONE', #153, .T. ) ;
#87 = ADVANCED_FACE ( 'NONE', ( #156, #201 ), #2, .F. ) ;
#88 = AXIS2_PLACEMENT_3D ( 'NONE', #110, #90, #69 ) ;
#89 = LOCAL_TIME ( 10, 22, 8.000000000000000000, #217 ) ;
#90 = DIRECTION ( 'NONE',  ( -3.491481338843133355E-15, 1.224646799147353207E-16, -1.000000000000000000 ) ) ;
#91 = AXIS2_PLACEMENT_3D ( 'NONE', #175, #96, #181 ) ;
#92 = ORIENTED_EDGE ( 'NONE', *, *, #249, .F. ) ;
#93 = ORIENTED_EDGE ( 'NONE', *, *, #258, .T. ) ;
#94 = DATE_AND_TIME ( #6, #89 ) ;
#95 = ORIENTED_EDGE ( 'NONE', *, *, #227, .F. ) ;
#96 = DIRECTION ( 'NONE',  ( -3.491481338843133355E-15, 1.224646799147353207E-16, -1.000000000000000000 ) ) ;
#97 = DATE_TIME_ROLE ( 'creation_date' ) ;
#98 = PERSON_AND_ORGANIZATION_ROLE ( 'design_owner' ) ;
#99 = CARTESIAN_POINT ( 'NONE',  ( 1.623538822562057010E-14, -5.421010862427522170E-16, 4.649999999999999467 ) ) ;
#100 = CARTESIAN_POINT ( 'NONE',  ( 1.396592535537253342E-14, 0.3109999999999995546, 4.000000000000000000 ) ) ;
#101 = LOCAL_TIME ( 10, 22, 8.000000000000000000, #277 ) ;
#102 = DIRECTION ( 'NONE',  ( -3.491481338843133355E-15, 1.224646799147353207E-16, -1.000000000000000000 ) ) ;
#103 = DIRECTION ( 'NONE',  ( 0.0000000000000000000, 1.000000000000000000, 0.0000000000000000000 ) ) ;
#104 = PRODUCT_DEFINITION ( 'UNKNOWN', '', #53, #212 ) ;
#105 = AXIS2_PLACEMENT_3D ( 'NONE', #162, #246, #103 ) ;
#106 = DIRECTION ( 'NONE',  ( -3.491481338843133355E-15, 1.224646799147353207E-16, -1.000000000000000000 ) ) ;
#107 = APPROVAL_PERSON_ORGANIZATION ( #190, #155, #84 ) ;
#108 = DIRECTION ( 'NONE',  ( -3.491481338843133355E-15, 1.224646799147353207E-16, -1.000000000000000000 ) ) ;
#109 = ADVANCED_FACE ( 'NONE', ( #144, #39 ), #125, .T. ) ;
#110 = CARTESIAN_POINT ( 'NONE',  ( 1.047444401652940007E-13, -3.673940397442059178E-15, 30.00000000000000000 ) ) ;
#111 = EDGE_LOOP ( 'NONE', ( #198 ) ) ;
#112 = CIRCLE ( 'NONE', #251, 0.3110000000000001097 ) ;
#113 = AXIS2_PLACEMENT_3D ( 'NONE', #202, #245, #14 ) ;
#114 = EDGE_LOOP ( 'NONE', ( #46 ) ) ;
#115 = DIRECTION ( 'NONE',  ( -3.491481338843133355E-15, 1.224646799147353207E-16, -1.000000000000000000 ) ) ;
#116 = VERTEX_POINT ( 'NONE', #229 ) ;
#117 = CYLINDRICAL_SURFACE ( 'NONE', #123, 0.3109999999999998321 ) ;
#118 = APPROVAL_ROLE ( '' ) ;
#119 = DIRECTION ( 'NONE',  ( -4.275831445896958607E-31, -1.000000000000000000, -1.224646799147353207E-16 ) ) ;
#120 = PERSON_AND_ORGANIZATION ( #235, #63 ) ;
#121 = VERTEX_POINT ( 'NONE', #80 ) ;
#122 = CIRCLE ( 'NONE', #160, 0.3280370868554651209 ) ;
#123 = AXIS2_PLACEMENT_3D ( 'NONE', #140, #270, #79 ) ;
#124 = ADVANCED_FACE ( 'NONE', ( #281, #85 ), #171, .T. ) ;
#125 = CYLINDRICAL_SURFACE ( 'NONE', #215, 0.7499999999999984457 ) ;
#126 = CC_DESIGN_PERSON_AND_ORGANIZATION_ASSIGNMENT ( #120, #166, ( #104 ) ) ;
#127 = CARTESIAN_POINT ( 'NONE',  ( 1.042207179644675275E-13, -3.655570695454848748E-15, 29.84999999999999787 ) ) ;
#128 = CARTESIAN_POINT ( 'NONE',  ( 0.0000000000000000000, 0.0000000000000000000, 0.0000000000000000000 ) ) ;
#129 = EDGE_LOOP ( 'NONE', ( #93 ) ) ;
#130 = AXIS2_PLACEMENT_3D ( 'NONE', #236, #257, #40 ) ;
#131 = APPROVAL_ROLE ( '' ) ;
#132 = EDGE_LOOP ( 'NONE', ( #178 ) ) ;
#133 = DIRECTION ( 'NONE',  ( -6.192700785811055591E-31, -1.000000000000000000, -1.743090309462227983E-16 ) ) ;
#134 = DATE_AND_TIME ( #81, #260 ) ;
#135 = PLANE ( 'NONE',  #221 ) ;
#136 = EDGE_CURVE ( 'NONE', #121, #121, #12, .T. ) ;
#137 = CARTESIAN_POINT ( 'NONE',  ( 1.576676675779219862E-15, 0.3109999999999995546, 0.4515781477158447021 ) ) ;
#138 = PLANE ( 'NONE',  #37 ) ;
#139 = DIRECTION ( 'NONE',  ( -3.491481338843133355E-15, 1.224646799147353207E-16, -1.000000000000000000 ) ) ;
#140 = CARTESIAN_POINT ( 'NONE',  ( 0.0000000000000000000, 0.0000000000000000000, 0.0000000000000000000 ) ) ;
#141 = APPROVAL_DATE_TIME ( #11, #282 ) ;
#142 = UNCERTAINTY_MEASURE_WITH_UNIT (LENGTH_MEASURE( 1.000000000000000082E-05 ), #50, 'distance_accuracy_value', 'NONE');
#143 = CALENDAR_DATE ( 2021, 16, 12 ) ;
#144 = FACE_OUTER_BOUND ( 'NONE', #4, .T. ) ;
#145 = PERSON_AND_ORGANIZATION_ROLE ( 'classification_officer' ) ;
#146 = ADVANCED_FACE ( 'NONE', ( #21 ), #211, .F. ) ;
#147 = FACE_BOUND ( 'NONE', #193, .T. ) ;
#148 = CLOSED_SHELL ( 'NONE', ( #205, #124, #87, #230, #109, #157, #30 ) ) ;
#149 = ORIENTED_EDGE ( 'NONE', *, *, #227, .T. ) ;
#150 = EDGE_LOOP ( 'NONE', ( #196 ) ) ;
#151 = SHAPE_DEFINITION_REPRESENTATION ( #77, #188 ) ;
#152 = ORIENTED_EDGE ( 'NONE', *, *, #180, .F. ) ;
#153 = EDGE_LOOP ( 'NONE', ( #152 ) ) ;
#154 = CARTESIAN_POINT ( 'NONE',  ( 1.047444401652940007E-13, -3.673940397442059178E-15, 30.00000000000000000 ) ) ;
#155 = APPROVAL ( #209, 'UNSPECIFIED' ) ;
#156 = FACE_OUTER_BOUND ( 'NONE', #174, .T. ) ;
#157 = ADVANCED_FACE ( 'NONE', ( #262, #213 ), #206, .T. ) ;
#158 = DIRECTION ( 'NONE',  ( 0.0000000000000000000, 0.0000000000000000000, 1.000000000000000000 ) ) ;
#159 = DIRECTION ( 'NONE',  ( 0.0000000000000000000, 1.000000000000000000, 0.0000000000000000000 ) ) ;
#160 = AXIS2_PLACEMENT_3D ( 'NONE', #226, #139, #159 ) ;
#161 = APPROVAL_PERSON_ORGANIZATION ( #182, #199, #131 ) ;
#162 = CARTESIAN_POINT ( 'NONE',  ( 1.396592535537253342E-14, -4.898587196589412829E-16, 4.000000000000000000 ) ) ;
#163 = COORDINATED_UNIVERSAL_TIME_OFFSET ( 1, 0, .AHEAD. ) ;
#164 = CARTESIAN_POINT ( 'NONE',  ( 1.576676675779219665E-15, -5.530237331650998504E-17, 0.4515781477158446466 ) ) ;
#165 = CARTESIAN_POINT ( 'NONE',  ( 1.047444401652940007E-13, 0.5999999999999963141, 30.00000000000000000 ) ) ;
#166 = PERSON_AND_ORGANIZATION_ROLE ( 'creator' ) ;
#167 = AXIS2_PLACEMENT_3D ( 'NONE', #67, #240, #238 ) ;
#168 = CC_DESIGN_PERSON_AND_ORGANIZATION_ASSIGNMENT ( #252, #280, ( #53 ) ) ;
#169 = PERSON_AND_ORGANIZATION ( #235, #63 ) ;
#170 = APPLICATION_CONTEXT ( 'configuration controlled 3d designs of mechanical parts and assemblies' ) ;
#171 = CYLINDRICAL_SURFACE ( 'NONE', #130, 0.3110000000000000542 ) ;
#172 = CARTESIAN_POINT ( 'NONE',  ( 1.576676675779219665E-15, -5.530237331650998504E-17, 0.4515781477158446466 ) ) ;
#173 =( GEOMETRIC_REPRESENTATION_CONTEXT ( 3 ) GLOBAL_UNCERTAINTY_ASSIGNED_CONTEXT ( ( #142 ) ) GLOBAL_UNIT_ASSIGNED_CONTEXT ( ( #50, #183, #220 ) ) REPRESENTATION_CONTEXT ( 'NONE', 'WORKASPACE' ) );
#174 = EDGE_LOOP ( 'NONE', ( #261 ) ) ;
#175 = CARTESIAN_POINT ( 'NONE',  ( 2.218555868924579945E-14, -7.781646470172154088E-16, 6.354196553316465490 ) ) ;
#176 = ORIENTED_EDGE ( 'NONE', *, *, #136, .F. ) ;
#177 = APPROVAL_DATE_TIME ( #94, #199 ) ;
#178 = ORIENTED_EDGE ( 'NONE', *, *, #189, .T. ) ;
#179 = MECHANICAL_CONTEXT ( 'NONE', #279, 'mechanical' ) ;
#180 = EDGE_CURVE ( 'NONE', #74, #74, #52, .T. ) ;
#181 = DIRECTION ( 'NONE',  ( 0.0000000000000000000, 1.000000000000000000, 0.0000000000000000000 ) ) ;
#182 = PERSON_AND_ORGANIZATION ( #235, #63 ) ;
#183 =( NAMED_UNIT ( * ) PLANE_ANGLE_UNIT ( ) SI_UNIT ( $, .RADIAN. ) );
#184 = CARTESIAN_POINT ( 'NONE',  ( 1.623538822562057326E-14, 0.3109999999999995546, 4.650000000000000355 ) ) ;
#185 = AXIS2_PLACEMENT_3D ( 'NONE', #99, #210, #65 ) ;
#186 = CARTESIAN_POINT ( 'NONE',  ( 2.218555868924579945E-14, 0.7499999999999963363, 6.354196553316465490 ) ) ;
#187 = VERTEX_POINT ( 'NONE', #184 ) ;
#188 = ADVANCED_BREP_SHAPE_REPRESENTATION ( '986894', ( #83, #274, #207 ), #173 ) ;
#189 = EDGE_CURVE ( 'NONE', #116, #116, #122, .T. ) ;
#190 = PERSON_AND_ORGANIZATION ( #235, #63 ) ;
#191 = FACE_OUTER_BOUND ( 'NONE', #70, .T. ) ;
#192 = DIRECTION ( 'NONE',  ( 0.0000000000000000000, 1.000000000000000000, 0.0000000000000000000 ) ) ;
#193 = EDGE_LOOP ( 'NONE', ( #28 ) ) ;
#194 = CIRCLE ( 'NONE', #43, 0.3109999999999996101 ) ;
#195 = AXIS2_PLACEMENT_3D ( 'NONE', #203, #102, #13 ) ;
#196 = ORIENTED_EDGE ( 'NONE', *, *, #180, .T. ) ;
#197 = PRODUCT_RELATED_PRODUCT_CATEGORY ( 'detail', '', ( #25 ) ) ;
#198 = ORIENTED_EDGE ( 'NONE', *, *, #249, .T. ) ;
#199 = APPROVAL ( #44, 'UNSPECIFIED' ) ;
#200 = EDGE_LOOP ( 'NONE', ( #149 ) ) ;
#201 = FACE_OUTER_BOUND ( 'NONE', #132, .T. ) ;
#202 = CARTESIAN_POINT ( 'NONE',  ( 2.218555868924579945E-14, -7.781646470172154088E-16, 6.354196553316465490 ) ) ;
#203 = CARTESIAN_POINT ( 'NONE',  ( 1.396592535537253342E-14, -4.898587196589412829E-16, 4.000000000000000000 ) ) ;
#204 = DIRECTION ( 'NONE',  ( -3.491481338843133355E-15, 1.224646799147353207E-16, -1.000000000000000000 ) ) ;
#205 = ADVANCED_FACE ( 'NONE', ( #78 ), #138, .F. ) ;
#206 = CONICAL_SURFACE ( 'NONE', #88, 0.6000000000000000888, 0.7853981633974450594 ) ;
#207 = AXIS2_PLACEMENT_3D ( 'NONE', #31, #158, #242 ) ;
#208 = CIRCLE ( 'NONE', #91, 0.7499999999999971134 ) ;
#209 = APPROVAL_STATUS ( 'not_yet_approved' ) ;
#210 = DIRECTION ( 'NONE',  ( -3.491481338843133355E-15, 1.224646799147353207E-16, -1.000000000000000000 ) ) ;
#211 = PLANE ( 'NONE',  #167 ) ;
#212 = DESIGN_CONTEXT ( 'detailed design', #170, 'design' ) ;
#213 = FACE_BOUND ( 'NONE', #150, .T. ) ;
#214 = ORIENTED_EDGE ( 'NONE', *, *, #189, .F. ) ;
#215 = AXIS2_PLACEMENT_3D ( 'NONE', #128, #20, #41 ) ;
#216 = CIRCLE ( 'NONE', #105, 0.3109999999999999987 ) ;
#217 = COORDINATED_UNIVERSAL_TIME_OFFSET ( 1, 0, .AHEAD. ) ;
#218 = EDGE_LOOP ( 'NONE', ( #92 ) ) ;
#219 = PLANE ( 'NONE',  #75 ) ;
#220 =( NAMED_UNIT ( * ) SI_UNIT ( $, .STERADIAN. ) SOLID_ANGLE_UNIT ( ) );
#221 = AXIS2_PLACEMENT_3D ( 'NONE', #9, #223, #48 ) ;
#222 = CIRCLE ( 'NONE', #195, 0.3109999999999999987 ) ;
#223 = DIRECTION ( 'NONE',  ( 3.491481338843133355E-15, -1.224646799147353207E-16, 1.000000000000000000 ) ) ;
#224 = CARTESIAN_POINT ( 'NONE',  ( 1.396592535537253342E-14, 0.3109999999999995546, 4.000000000000000000 ) ) ;
#225 = FACE_BOUND ( 'NONE', #266, .T. ) ;
#226 = CARTESIAN_POINT ( 'NONE',  ( 1.668721915867687670E-14, -5.853088573606775477E-16, 4.779409522551255840 ) ) ;
#227 = EDGE_CURVE ( 'NONE', #250, #250, #194, .T. ) ;
#228 = CC_DESIGN_SECURITY_CLASSIFICATION ( #244, ( #53 ) ) ;
#229 = CARTESIAN_POINT ( 'NONE',  ( 1.668721915867687670E-14, 0.3280370868554645658, 4.779409522551255840 ) ) ;
#230 = ADVANCED_FACE ( 'NONE', ( #225, #54 ), #272, .T. ) ;
#231 = DATE_AND_TIME ( #61, #239 ) ;
#232 = AXIS2_PLACEMENT_3D ( 'NONE', #127, #108, #192 ) ;
#233 = COORDINATED_UNIVERSAL_TIME_OFFSET ( 1, 0, .AHEAD. ) ;
#234 = EDGE_LOOP ( 'NONE', ( #95 ) ) ;
#235 = PERSON ( 'UNSPECIFIED', 'UNSPECIFIED', 'UNSPECIFIED', ('UNSPECIFIED'), ('UNSPECIFIED'), ('UNSPECIFIED') ) ;
#236 = CARTESIAN_POINT ( 'NONE',  ( 0.0000000000000000000, 0.0000000000000000000, 0.0000000000000000000 ) ) ;
#237 = CC_DESIGN_PERSON_AND_ORGANIZATION_ASSIGNMENT ( #7, #98, ( #25 ) ) ;
#238 = DIRECTION ( 'NONE',  ( -4.275831445896958607E-31, -1.000000000000000000, -1.224646799147353207E-16 ) ) ;
#239 = LOCAL_TIME ( 10, 22, 8.000000000000000000, #233 ) ;
#240 = DIRECTION ( 'NONE',  ( 3.491481338843133355E-15, -1.224646799147353207E-16, 1.000000000000000000 ) ) ;
#241 = ORIENTED_EDGE ( 'NONE', *, *, #22, .F. ) ;
#242 = DIRECTION ( 'NONE',  ( 1.000000000000000000, 0.0000000000000000000, 0.0000000000000000000 ) ) ;
#243 = AXIS2_PLACEMENT_3D ( 'NONE', #154, #36, #10 ) ;
#244 = SECURITY_CLASSIFICATION ( '', '', #38 ) ;
#245 = DIRECTION ( 'NONE',  ( 3.491481338843133355E-15, -1.224646799147353207E-16, 1.000000000000000000 ) ) ;
#246 = DIRECTION ( 'NONE',  ( -3.491481338843133355E-15, 1.224646799147353207E-16, -1.000000000000000000 ) ) ;
#247 = CC_DESIGN_PERSON_AND_ORGANIZATION_ASSIGNMENT ( #169, #145, ( #244 ) ) ;
#248 = VERTEX_POINT ( 'NONE', #186 ) ;
#249 = EDGE_CURVE ( 'NONE', #273, #273, #216, .T. ) ;
#250 = VERTEX_POINT ( 'NONE', #137 ) ;
#251 = AXIS2_PLACEMENT_3D ( 'NONE', #259, #269, #66 ) ;
#252 = PERSON_AND_ORGANIZATION ( #235, #63 ) ;
#253 = LOCAL_TIME ( 10, 22, 8.000000000000000000, #18 ) ;
#254 = CARTESIAN_POINT ( 'NONE',  ( 1.047444401652940007E-13, 4.499279347985518085E-33, 30.00000000000000000 ) ) ;
#255 = DATE_AND_TIME ( #143, #253 ) ;
#256 = ADVANCED_FACE ( 'NONE', ( #275, #34 ), #117, .T. ) ;
#257 = DIRECTION ( 'NONE',  ( -3.491481338843133355E-15, 1.224646799147353207E-16, -1.000000000000000000 ) ) ;
#258 = EDGE_CURVE ( 'NONE', #33, #33, #222, .T. ) ;
#259 = CARTESIAN_POINT ( 'NONE',  ( 1.623538822562057326E-14, -5.694607616035192869E-16, 4.650000000000000355 ) ) ;
#260 = LOCAL_TIME ( 10, 22, 8.000000000000000000, #163 ) ;
#261 = ORIENTED_EDGE ( 'NONE', *, *, #49, .F. ) ;
#262 = FACE_OUTER_BOUND ( 'NONE', #24, .T. ) ;
#263 = ORIENTED_EDGE ( 'NONE', *, *, #258, .F. ) ;
#264 = APPROVAL_DATE_TIME ( #231, #155 ) ;
#265 = PERSON_AND_ORGANIZATION ( #235, #63 ) ;
#266 = EDGE_LOOP ( 'NONE', ( #214 ) ) ;
#267 = CC_DESIGN_APPROVAL ( #155, ( #244 ) ) ;
#268 = APPLICATION_PROTOCOL_DEFINITION ( 'international standard', 'config_control_design', 1994, #170 ) ;
#269 = DIRECTION ( 'NONE',  ( -3.491481338843133355E-15, 1.224646799147353207E-16, -1.000000000000000000 ) ) ;
#270 = DIRECTION ( 'NONE',  ( -3.491481338843133355E-15, 1.224646799147353207E-16, -1.000000000000000000 ) ) ;
#271 = AXIS2_PLACEMENT_3D ( 'NONE', #73, #106, #1 ) ;
#272 = CONICAL_SURFACE ( 'NONE', #113, 0.7499999999999971134, 0.2617993877991425244 ) ;
#273 = VERTEX_POINT ( 'NONE', #224 ) ;
#274 = MANIFOLD_SOLID_BREP ( 'Corps-Déplacer/Copier1[2]', #278 ) ;
#275 = FACE_OUTER_BOUND ( 'NONE', #234, .T. ) ;
#276 = CARTESIAN_POINT ( 'NONE',  ( 2.365919782978951696E-32, 0.1900000000000000300, 6.776263578034402713E-18 ) ) ;
#277 = COORDINATED_UNIVERSAL_TIME_OFFSET ( 1, 0, .AHEAD. ) ;
#278 = CLOSED_SHELL ( 'NONE', ( #146, #26, #256, #8 ) ) ;
#279 = APPLICATION_CONTEXT ( 'configuration controlled 3d designs of mechanical parts and assemblies' ) ;
#280 = PERSON_AND_ORGANIZATION_ROLE ( 'design_supplier' ) ;
#281 = FACE_OUTER_BOUND ( 'NONE', #218, .T. ) ;
#282 = APPROVAL ( #59, 'UNSPECIFIED' ) ;
#283 = FACE_OUTER_BOUND ( 'NONE', #200, .T. ) ;
ENDSEC;
END-ISO-10303-21;
