ISO-10303-21;
HEADER;
FILE_DESCRIPTION (( 'STEP AP203' ),
    '1' );
FILE_NAME ('986893.step',
    '2021-12-16T09:22:07',
    ( '' ),
    ( '' ),
    'SwSTEP 2.0',
    'SolidWorks 2019',
    '' );
FILE_SCHEMA (( 'CONFIG_CONTROL_DESIGN' ));
ENDSEC;

DATA;
#1 = DIRECTION ( 'NONE',  ( 0.0000000000000000000, 0.0000000000000000000, 1.000000000000000000 ) ) ;
#2 = CALENDAR_DATE ( 2021, 16, 12 ) ;
#3 = LOCAL_TIME ( 10, 22, 7.000000000000000000, #127 ) ;
#4 = PERSON_AND_ORGANIZATION ( #196, #223 ) ;
#5 = ORIENTED_EDGE ( 'NONE', *, *, #133, .F. ) ;
#6 = APPROVAL_PERSON_ORGANIZATION ( #4, #96, #43 ) ;
#7 = DIRECTION ( 'NONE',  ( -3.491481338843133355E-15, 1.224646799147353207E-16, -1.000000000000000000 ) ) ;
#8 = TOROIDAL_SURFACE ( 'NONE', #153, 0.7595000000000000639, 0.4999999999999998890 ) ;
#9 = CARTESIAN_POINT ( 'NONE',  ( 1.222018468595096674E-14, 1.945938318003754198E-33, 3.500000000000000000 ) ) ;
#10 = APPLICATION_CONTEXT ( 'configuration controlled 3d designs of mechanical parts and assemblies' ) ;
#11 = CARTESIAN_POINT ( 'NONE',  ( 2.093630881901951119E-14, -7.343468600541957939E-16, 5.996397169906267699 ) ) ;
#12 = ORIENTED_EDGE ( 'NONE', *, *, #46, .T. ) ;
#13 = CARTESIAN_POINT ( 'NONE',  ( 1.222018468595096674E-14, 0.2594999999999996199, 3.500000000000000000 ) ) ;
#14 = DIRECTION ( 'NONE',  ( -4.275831445896958607E-31, -1.000000000000000000, -1.224646799147353207E-16 ) ) ;
#15 = CARTESIAN_POINT ( 'NONE',  ( 1.296523382149027496E-15, -4.547591855365903163E-17, 0.3713390553531119020 ) ) ;
#16 = CC_DESIGN_SECURITY_CLASSIFICATION ( #76, ( #111 ) ) ;
#17 = FACE_OUTER_BOUND ( 'NONE', #257, .T. ) ;
#18 = DIRECTION ( 'NONE',  ( -7.421695354093403803E-31, -1.000000000000000000, -2.089021526947024671E-16 ) ) ;
#19 = CARTESIAN_POINT ( 'NONE',  ( 1.476690442231316282E-14, -5.179532834075732951E-16, 4.229409522551257794 ) ) ;
#20 = FACE_OUTER_BOUND ( 'NONE', #116, .T. ) ;
#21 = PERSON_AND_ORGANIZATION_ROLE ( 'creator' ) ;
#22 = COORDINATED_UNIVERSAL_TIME_OFFSET ( 1, 0, .AHEAD. ) ;
#23 = ADVANCED_FACE ( 'NONE', ( #210 ), #135, .F. ) ;
#24 = PRODUCT_DEFINITION ( 'UNKNOWN', '', #111, #204 ) ;
#25 = COORDINATED_UNIVERSAL_TIME_OFFSET ( 1, 0, .AHEAD. ) ;
#26 = PERSON_AND_ORGANIZATION ( #196, #223 ) ;
#27 = LOCAL_TIME ( 10, 22, 7.000000000000000000, #131 ) ;
#28 = APPROVAL_DATE_TIME ( #171, #207 ) ;
#29 = ADVANCED_FACE ( 'NONE', ( #238 ), #36, .F. ) ;
#30 = LOCAL_TIME ( 10, 22, 7.000000000000000000, #22 ) ;
#31 = ORIENTED_EDGE ( 'NONE', *, *, #32, .T. ) ;
#32 = EDGE_CURVE ( 'NONE', #279, #279, #66, .T. ) ;
#33 = FACE_OUTER_BOUND ( 'NONE', #177, .T. ) ;
#34 = DIRECTION ( 'NONE',  ( 0.0000000000000000000, 1.000000000000000000, 0.0000000000000000000 ) ) ;
#35 = FACE_OUTER_BOUND ( 'NONE', #158, .T. ) ;
#36 = PLANE ( 'NONE',  #259 ) ;
#37 = CARTESIAN_POINT ( 'NONE',  ( 1.296523382149027496E-15, -4.547591855365903163E-17, 0.3713390553531119020 ) ) ;
#38 = DIRECTION ( 'NONE',  ( -3.491481338843133355E-15, 1.224646799147353207E-16, -1.000000000000000000 ) ) ;
#39 = DIRECTION ( 'NONE',  ( -3.491481338843133355E-15, 1.224646799147353207E-16, -1.000000000000000000 ) ) ;
#40 = CONICAL_SURFACE ( 'NONE', #112, 0.2594999999999996754, 0.2617993877991429130 ) ;
#41 = EDGE_LOOP ( 'NONE', ( #140 ) ) ;
#42 = ADVANCED_FACE ( 'NONE', ( #186 ), #271, .T. ) ;
#43 = APPROVAL_ROLE ( '' ) ;
#44 = APPROVAL_STATUS ( 'not_yet_approved' ) ;
#45 = CALENDAR_DATE ( 2021, 16, 12 ) ;
#46 = EDGE_CURVE ( 'NONE', #258, #258, #107, .T. ) ;
#47 = DATE_AND_TIME ( #146, #27 ) ;
#48 = AXIS2_PLACEMENT_3D ( 'NONE', #11, #39, #138 ) ;
#49 = AXIS2_PLACEMENT_3D ( 'NONE', #94, #231, #34 ) ;
#50 = ORIENTED_EDGE ( 'NONE', *, *, #230, .F. ) ;
#51 = EDGE_LOOP ( 'NONE', ( #50 ) ) ;
#52 = DIRECTION ( 'NONE',  ( 4.275831445896958607E-31, 1.000000000000000000, 1.224646799147353207E-16 ) ) ;
#53 = AXIS2_PLACEMENT_3D ( 'NONE', #165, #72, #143 ) ;
#54 = CARTESIAN_POINT ( 'NONE',  ( 2.093630881901951119E-14, 0.7499999999999963363, 5.996397169906267699 ) ) ;
#55 = CC_DESIGN_PERSON_AND_ORGANIZATION_ASSIGNMENT ( #108, #199, ( #111 ) ) ;
#56 = FACE_OUTER_BOUND ( 'NONE', #122, .T. ) ;
#57 = VERTEX_POINT ( 'NONE', #61 ) ;
#58 = CARTESIAN_POINT ( 'NONE',  ( 1.047444401652940007E-13, -3.673940397442059178E-15, 30.00000000000000000 ) ) ;
#59 = CARTESIAN_POINT ( 'NONE',  ( -2.237705265228090605E-32, 7.848813510785547416E-34, -6.409042604161622637E-18 ) ) ;
#60 = AXIS2_PLACEMENT_3D ( 'NONE', #117, #211, #274 ) ;
#61 = CARTESIAN_POINT ( 'NONE',  ( 2.365919782978951696E-32, 0.1599999999999999756, 6.776263578034402713E-18 ) ) ;
#62 = DIRECTION ( 'NONE',  ( 4.275831445896959482E-31, 1.000000000000000000, 1.224646799147353207E-16 ) ) ;
#63 = DATE_TIME_ROLE ( 'classification_date' ) ;
#64 = UNCERTAINTY_MEASURE_WITH_UNIT (LENGTH_MEASURE( 1.000000000000000082E-05 ), #239, 'distance_accuracy_value', 'NONE');
#65 = ADVANCED_FACE ( 'NONE', ( #17 ), #73, .F. ) ;
#66 = CIRCLE ( 'NONE', #266, 0.2595000000000001195 ) ;
#67 = CONICAL_SURFACE ( 'NONE', #209, 0.6000000000000000888, 0.7853981633974450594 ) ;
#68 = CC_DESIGN_APPROVAL ( #179, ( #76 ) ) ;
#69 = AXIS2_PLACEMENT_3D ( 'NONE', #168, #141, #160 ) ;
#70 = ORIENTED_EDGE ( 'NONE', *, *, #154, .T. ) ;
#71 = ADVANCED_FACE ( 'NONE', ( #102, #162 ), #120, .T. ) ;
#72 = DIRECTION ( 'NONE',  ( 3.491481338843133355E-15, -1.224646799147353207E-16, 1.000000000000000000 ) ) ;
#73 = PLANE ( 'NONE',  #202 ) ;
#74 = DIRECTION ( 'NONE',  ( 7.421695354093403803E-31, 1.000000000000000000, 2.089021526947024671E-16 ) ) ;
#75 = DIRECTION ( 'NONE',  ( 0.0000000000000000000, 1.000000000000000000, 0.0000000000000000000 ) ) ;
#76 = SECURITY_CLASSIFICATION ( '', '', #197 ) ;
#77 = DIRECTION ( 'NONE',  ( -3.491481338843133355E-15, 1.224646799147353207E-16, -1.000000000000000000 ) ) ;
#78 = APPLICATION_CONTEXT ( 'configuration controlled 3d designs of mechanical parts and assemblies' ) ;
#79 = EDGE_LOOP ( 'NONE', ( #255 ) ) ;
#80 = PRODUCT ( '986893', '986893', '', ( #222 ) ) ;
#81 = CARTESIAN_POINT ( 'NONE',  ( 1.042207179644675275E-13, 0.7499999999999962252, 29.84999999999999787 ) ) ;
#82 = EDGE_LOOP ( 'NONE', ( #5 ) ) ;
#83 = CARTESIAN_POINT ( 'NONE',  ( 0.0000000000000000000, 0.0000000000000000000, 0.0000000000000000000 ) ) ;
#84 = CIRCLE ( 'NONE', #60, 0.2595000000000000639 ) ;
#85 = DIRECTION ( 'NONE',  ( -3.491481338843133355E-15, 1.224646799147353207E-16, -1.000000000000000000 ) ) ;
#86 = PERSON_AND_ORGANIZATION_ROLE ( 'design_supplier' ) ;
#87 = DATE_AND_TIME ( #2, #30 ) ;
#88 = CC_DESIGN_DATE_AND_TIME_ASSIGNMENT ( #169, #63, ( #76 ) ) ;
#89 = APPROVAL_DATE_TIME ( #148, #96 ) ;
#90 = DIRECTION ( 'NONE',  ( 1.000000000000000000, 0.0000000000000000000, 0.0000000000000000000 ) ) ;
#91 = APPLICATION_PROTOCOL_DEFINITION ( 'international standard', 'config_control_design', 1994, #78 ) ;
#92 = CC_DESIGN_APPROVAL ( #96, ( #24 ) ) ;
#93 = AXIS2_PLACEMENT_3D ( 'NONE', #15, #77, #74 ) ;
#94 = CARTESIAN_POINT ( 'NONE',  ( 1.042207179644675275E-13, -3.655570695454848748E-15, 29.84999999999999787 ) ) ;
#95 = ORIENTED_EDGE ( 'NONE', *, *, #105, .F. ) ;
#96 = APPROVAL ( #130, 'UNSPECIFIED' ) ;
#97 = CARTESIAN_POINT ( 'NONE',  ( 1.047444401652940007E-13, 0.5999999999999963141, 30.00000000000000000 ) ) ;
#98 = ORIENTED_EDGE ( 'NONE', *, *, #230, .T. ) ;
#99 = CYLINDRICAL_SURFACE ( 'NONE', #267, 0.2595000000000000639 ) ;
#100 = CARTESIAN_POINT ( 'NONE',  ( 1.431507348925684360E-14, -5.021051876504147385E-16, 4.099999999999999645 ) ) ;
#101 = FACE_OUTER_BOUND ( 'NONE', #114, .T. ) ;
#102 = FACE_OUTER_BOUND ( 'NONE', #164, .T. ) ;
#103 = CARTESIAN_POINT ( 'NONE',  ( 0.0000000000000000000, 0.0000000000000000000, 0.0000000000000000000 ) ) ;
#104 = DIRECTION ( 'NONE',  ( -3.491481338843133355E-15, 1.224646799147353207E-16, -1.000000000000000000 ) ) ;
#105 = EDGE_CURVE ( 'NONE', #281, #281, #246, .T. ) ;
#106 = DIRECTION ( 'NONE',  ( -3.491481338843133355E-15, 1.224646799147353207E-16, -1.000000000000000000 ) ) ;
#107 = CIRCLE ( 'NONE', #167, 0.2595000000000000639 ) ;
#108 = PERSON_AND_ORGANIZATION ( #196, #223 ) ;
#109 = ADVANCED_FACE ( 'NONE', ( #33, #56 ), #8, .F. ) ;
#110 = PERSON_AND_ORGANIZATION ( #196, #223 ) ;
#111 = PRODUCT_DEFINITION_FORMATION_WITH_SPECIFIED_SOURCE ( 'ANY', '', #80, .NOT_KNOWN. ) ;
#112 = AXIS2_PLACEMENT_3D ( 'NONE', #37, #218, #18 ) ;
#113 = EDGE_LOOP ( 'NONE', ( #70 ) ) ;
#114 = EDGE_LOOP ( 'NONE', ( #95 ) ) ;
#115 = AXIS2_PLACEMENT_3D ( 'NONE', #221, #145, #192 ) ;
#116 = EDGE_LOOP ( 'NONE', ( #31 ) ) ;
#117 = CARTESIAN_POINT ( 'NONE',  ( 1.222018468595096674E-14, -4.286263797015736595E-16, 3.500000000000000000 ) ) ;
#118 = DIRECTION ( 'NONE',  ( 3.491481338843133355E-15, -1.224646799147353207E-16, 1.000000000000000000 ) ) ;
#119 = DIRECTION ( 'NONE',  ( 4.275831445896959482E-31, 1.000000000000000000, 1.224646799147353207E-16 ) ) ;
#120 = CYLINDRICAL_SURFACE ( 'NONE', #176, 0.7499999999999984457 ) ;
#121 = VERTEX_POINT ( 'NONE', #213 ) ;
#122 = EDGE_LOOP ( 'NONE', ( #156 ) ) ;
#123 = FACE_BOUND ( 'NONE', #79, .T. ) ;
#124 = EDGE_CURVE ( 'NONE', #121, #121, #188, .T. ) ;
#125 = DIRECTION ( 'NONE',  ( 0.0000000000000000000, 1.000000000000000000, 0.0000000000000000000 ) ) ;
#126 = FACE_OUTER_BOUND ( 'NONE', #41, .T. ) ;
#127 = COORDINATED_UNIVERSAL_TIME_OFFSET ( 1, 0, .AHEAD. ) ;
#128 = APPROVAL_PERSON_ORGANIZATION ( #132, #207, #227 ) ;
#129 = APPROVAL_ROLE ( '' ) ;
#130 = APPROVAL_STATUS ( 'not_yet_approved' ) ;
#131 = COORDINATED_UNIVERSAL_TIME_OFFSET ( 1, 0, .AHEAD. ) ;
#132 = PERSON_AND_ORGANIZATION ( #196, #223 ) ;
#133 = EDGE_CURVE ( 'NONE', #57, #57, #269, .T. ) ;
#134 = CC_DESIGN_PERSON_AND_ORGANIZATION_ASSIGNMENT ( #26, #200, ( #76 ) ) ;
#135 = PLANE ( 'NONE',  #195 ) ;
#136 = AXIS2_PLACEMENT_3D ( 'NONE', #265, #1, #90 ) ;
#137 = CARTESIAN_POINT ( 'NONE',  ( 0.0000000000000000000, 0.0000000000000000000, 0.0000000000000000000 ) ) ;
#138 = DIRECTION ( 'NONE',  ( 0.0000000000000000000, 1.000000000000000000, 0.0000000000000000000 ) ) ;
#139 = DIRECTION ( 'NONE',  ( -3.491481338843133355E-15, 1.224646799147353207E-16, -1.000000000000000000 ) ) ;
#140 = ORIENTED_EDGE ( 'NONE', *, *, #46, .F. ) ;
#141 = DIRECTION ( 'NONE',  ( -3.491481338843133355E-15, 1.224646799147353207E-16, -1.000000000000000000 ) ) ;
#142 = EDGE_CURVE ( 'NONE', #256, #256, #181, .T. ) ;
#143 = DIRECTION ( 'NONE',  ( -4.275831445896958607E-31, -1.000000000000000000, -1.224646799147353207E-16 ) ) ;
#144 = VERTEX_POINT ( 'NONE', #97 ) ;
#145 = DIRECTION ( 'NONE',  ( 3.491481338843133355E-15, -1.224646799147353207E-16, 1.000000000000000000 ) ) ;
#146 = CALENDAR_DATE ( 2021, 16, 12 ) ;
#147 = APPROVAL_PERSON_ORGANIZATION ( #242, #179, #129 ) ;
#148 = DATE_AND_TIME ( #45, #3 ) ;
#149 = PRODUCT_RELATED_PRODUCT_CATEGORY ( 'detail', '', ( #80 ) ) ;
#150 = CALENDAR_DATE ( 2021, 16, 12 ) ;
#151 = PERSON_AND_ORGANIZATION ( #196, #223 ) ;
#152 = PERSON_AND_ORGANIZATION_ROLE ( 'design_owner' ) ;
#153 = AXIS2_PLACEMENT_3D ( 'NONE', #193, #280, #220 ) ;
#154 = EDGE_CURVE ( 'NONE', #144, #144, #275, .T. ) ;
#155 = AXIS2_PLACEMENT_3D ( 'NONE', #58, #85, #237 ) ;
#156 = ORIENTED_EDGE ( 'NONE', *, *, #124, .T. ) ;
#157 = CC_DESIGN_PERSON_AND_ORGANIZATION_ASSIGNMENT ( #110, #86, ( #111 ) ) ;
#158 = EDGE_LOOP ( 'NONE', ( #98 ) ) ;
#159 = ORIENTED_EDGE ( 'NONE', *, *, #32, .F. ) ;
#160 = DIRECTION ( 'NONE',  ( 4.275831445896958607E-31, 1.000000000000000000, 1.224646799147353207E-16 ) ) ;
#161 = LOCAL_TIME ( 10, 22, 7.000000000000000000, #261 ) ;
#162 = FACE_OUTER_BOUND ( 'NONE', #252, .T. ) ;
#163 = CARTESIAN_POINT ( 'NONE',  ( 1.431507348925684360E-14, 0.2594999999999996199, 4.099999999999999645 ) ) ;
#164 = EDGE_LOOP ( 'NONE', ( #247 ) ) ;
#165 = CARTESIAN_POINT ( 'NONE',  ( 1.222018468595096674E-14, 1.945938318003754198E-33, 3.500000000000000000 ) ) ;
#166 = FACE_OUTER_BOUND ( 'NONE', #249, .T. ) ;
#167 = AXIS2_PLACEMENT_3D ( 'NONE', #189, #214, #240 ) ;
#168 = CARTESIAN_POINT ( 'NONE',  ( -4.475410530456181210E-32, 1.569762702157109483E-33, -1.281808520832324527E-17 ) ) ;
#169 = DATE_AND_TIME ( #150, #243 ) ;
#170 = APPROVAL_DATE_TIME ( #87, #179 ) ;
#171 = DATE_AND_TIME ( #225, #161 ) ;
#172 = ADVANCED_BREP_SHAPE_REPRESENTATION ( '986893', ( #178, #276, #136 ), #232 ) ;
#173 = PERSON_AND_ORGANIZATION ( #196, #223 ) ;
#174 =( NAMED_UNIT ( * ) SI_UNIT ( $, .STERADIAN. ) SOLID_ANGLE_UNIT ( ) );
#175 = ADVANCED_FACE ( 'NONE', ( #123, #166 ), #229, .T. ) ;
#176 = AXIS2_PLACEMENT_3D ( 'NONE', #137, #233, #191 ) ;
#177 = EDGE_LOOP ( 'NONE', ( #159 ) ) ;
#178 = MANIFOLD_SOLID_BREP ( 'Corps-Déplacer/Copier1[1]', #180 ) ;
#179 = APPROVAL ( #44, 'UNSPECIFIED' ) ;
#180 = CLOSED_SHELL ( 'NONE', ( #29, #198, #109, #175, #71, #201, #65 ) ) ;
#181 = CIRCLE ( 'NONE', #93, 0.2594999999999996754 ) ;
#182 = DIRECTION ( 'NONE',  ( 3.491481338843133355E-15, -1.224646799147353207E-16, 1.000000000000000000 ) ) ;
#183 = ORIENTED_EDGE ( 'NONE', *, *, #142, .F. ) ;
#184 = FACE_OUTER_BOUND ( 'NONE', #208, .T. ) ;
#185 = ADVANCED_FACE ( 'NONE', ( #187, #184 ), #40, .T. ) ;
#186 = FACE_OUTER_BOUND ( 'NONE', #51, .T. ) ;
#187 = FACE_BOUND ( 'NONE', #82, .T. ) ;
#188 = CIRCLE ( 'NONE', #226, 0.2765370868554654082 ) ;
#189 = CARTESIAN_POINT ( 'NONE',  ( 1.222018468595096674E-14, -4.286263797015736595E-16, 3.500000000000000000 ) ) ;
#190 = CARTESIAN_POINT ( 'NONE',  ( 1.296523382149027693E-15, 0.2594999999999996199, 0.3713390553531119576 ) ) ;
#191 = DIRECTION ( 'NONE',  ( 4.275831445896958607E-31, 1.000000000000000000, 1.224646799147353454E-16 ) ) ;
#192 = DIRECTION ( 'NONE',  ( 0.0000000000000000000, -1.000000000000000000, 0.0000000000000000000 ) ) ;
#193 = CARTESIAN_POINT ( 'NONE',  ( 1.431507348925684360E-14, -5.421010862427522170E-16, 4.099999999999999645 ) ) ;
#194 = CARTESIAN_POINT ( 'NONE',  ( 1.047444401652940007E-13, -3.673940397442059178E-15, 30.00000000000000000 ) ) ;
#195 = AXIS2_PLACEMENT_3D ( 'NONE', #59, #118, #14 ) ;
#196 = PERSON ( 'UNSPECIFIED', 'UNSPECIFIED', 'UNSPECIFIED', ('UNSPECIFIED'), ('UNSPECIFIED'), ('UNSPECIFIED') ) ;
#197 = SECURITY_CLASSIFICATION_LEVEL ( 'unclassified' ) ;
#198 = ADVANCED_FACE ( 'NONE', ( #126, #20 ), #99, .T. ) ;
#199 = PERSON_AND_ORGANIZATION_ROLE ( 'creator' ) ;
#200 = PERSON_AND_ORGANIZATION_ROLE ( 'classification_officer' ) ;
#201 = ADVANCED_FACE ( 'NONE', ( #101, #260 ), #67, .T. ) ;
#202 = AXIS2_PLACEMENT_3D ( 'NONE', #270, #7, #52 ) ;
#203 = DATE_TIME_ROLE ( 'creation_date' ) ;
#204 = DESIGN_CONTEXT ( 'detailed design', #10, 'design' ) ;
#205 = CC_DESIGN_APPROVAL ( #207, ( #111 ) ) ;
#206 = EDGE_LOOP ( 'NONE', ( #217 ) ) ;
#207 = APPROVAL ( #263, 'UNSPECIFIED' ) ;
#208 = EDGE_LOOP ( 'NONE', ( #228 ) ) ;
#209 = AXIS2_PLACEMENT_3D ( 'NONE', #194, #139, #241 ) ;
#210 = FACE_OUTER_BOUND ( 'NONE', #206, .T. ) ;
#211 = DIRECTION ( 'NONE',  ( -3.491481338843133355E-15, 1.224646799147353207E-16, -1.000000000000000000 ) ) ;
#212 = ORIENTED_EDGE ( 'NONE', *, *, #154, .F. ) ;
#213 = CARTESIAN_POINT ( 'NONE',  ( 1.476690442231316282E-14, 0.2765370868554648531, 4.229409522551257794 ) ) ;
#214 = DIRECTION ( 'NONE',  ( -3.491481338843133355E-15, 1.224646799147353207E-16, -1.000000000000000000 ) ) ;
#215 = PRODUCT_DEFINITION_SHAPE ( 'NONE', 'NONE',  #24 ) ;
#216 = CYLINDRICAL_SURFACE ( 'NONE', #251, 0.2594999999999998419 ) ;
#217 = ORIENTED_EDGE ( 'NONE', *, *, #133, .T. ) ;
#218 = DIRECTION ( 'NONE',  ( 3.491481338843133355E-15, -1.224646799147353207E-16, 1.000000000000000000 ) ) ;
#219 = CC_DESIGN_PERSON_AND_ORGANIZATION_ASSIGNMENT ( #151, #152, ( #80 ) ) ;
#220 = DIRECTION ( 'NONE',  ( 4.275831445896958607E-31, 1.000000000000000000, 1.224646799147353207E-16 ) ) ;
#221 = CARTESIAN_POINT ( 'NONE',  ( 2.093630881901951119E-14, -7.343468600541957939E-16, 5.996397169906267699 ) ) ;
#222 = MECHANICAL_CONTEXT ( 'NONE', #78, 'mechanical' ) ;
#223 = ORGANIZATION ( 'UNSPECIFIED', 'UNSPECIFIED', '' ) ;
#224 =( NAMED_UNIT ( * ) PLANE_ANGLE_UNIT ( ) SI_UNIT ( $, .RADIAN. ) );
#225 = CALENDAR_DATE ( 2021, 16, 12 ) ;
#226 = AXIS2_PLACEMENT_3D ( 'NONE', #19, #104, #125 ) ;
#227 = APPROVAL_ROLE ( '' ) ;
#228 = ORIENTED_EDGE ( 'NONE', *, *, #142, .T. ) ;
#229 = CONICAL_SURFACE ( 'NONE', #115, 0.7499999999999971134, 0.2617993877991427465 ) ;
#230 = EDGE_CURVE ( 'NONE', #277, #277, #84, .T. ) ;
#231 = DIRECTION ( 'NONE',  ( -3.491481338843133355E-15, 1.224646799147353207E-16, -1.000000000000000000 ) ) ;
#232 =( GEOMETRIC_REPRESENTATION_CONTEXT ( 3 ) GLOBAL_UNCERTAINTY_ASSIGNED_CONTEXT ( ( #64 ) ) GLOBAL_UNIT_ASSIGNED_CONTEXT ( ( #239, #224, #174 ) ) REPRESENTATION_CONTEXT ( 'NONE', 'WORKASPACE' ) );
#233 = DIRECTION ( 'NONE',  ( -3.491481338843133355E-15, 1.224646799147353207E-16, -1.000000000000000000 ) ) ;
#234 = EDGE_CURVE ( 'NONE', #250, #250, #283, .T. ) ;
#235 = FACE_OUTER_BOUND ( 'NONE', #273, .T. ) ;
#236 = EDGE_LOOP ( 'NONE', ( #12 ) ) ;
#237 = DIRECTION ( 'NONE',  ( 0.0000000000000000000, 1.000000000000000000, 0.0000000000000000000 ) ) ;
#238 = FACE_OUTER_BOUND ( 'NONE', #236, .T. ) ;
#239 =( LENGTH_UNIT ( ) NAMED_UNIT ( * ) SI_UNIT ( .MILLI., .METRE. ) );
#240 = DIRECTION ( 'NONE',  ( 0.0000000000000000000, 1.000000000000000000, 0.0000000000000000000 ) ) ;
#241 = DIRECTION ( 'NONE',  ( 0.0000000000000000000, 1.000000000000000000, 0.0000000000000000000 ) ) ;
#242 = PERSON_AND_ORGANIZATION ( #196, #223 ) ;
#243 = LOCAL_TIME ( 10, 22, 7.000000000000000000, #25 ) ;
#244 = APPLICATION_PROTOCOL_DEFINITION ( 'international standard', 'config_control_design', 1994, #10 ) ;
#245 = CC_DESIGN_DATE_AND_TIME_ASSIGNMENT ( #47, #203, ( #24 ) ) ;
#246 = CIRCLE ( 'NONE', #49, 0.7499999999999998890 ) ;
#247 = ORIENTED_EDGE ( 'NONE', *, *, #234, .F. ) ;
#248 = ORIENTED_EDGE ( 'NONE', *, *, #234, .T. ) ;
#249 = EDGE_LOOP ( 'NONE', ( #248 ) ) ;
#250 = VERTEX_POINT ( 'NONE', #54 ) ;
#251 = AXIS2_PLACEMENT_3D ( 'NONE', #83, #253, #119 ) ;
#252 = EDGE_LOOP ( 'NONE', ( #268 ) ) ;
#253 = DIRECTION ( 'NONE',  ( -3.491481338843133355E-15, 1.224646799147353207E-16, -1.000000000000000000 ) ) ;
#254 = CC_DESIGN_PERSON_AND_ORGANIZATION_ASSIGNMENT ( #173, #21, ( #24 ) ) ;
#255 = ORIENTED_EDGE ( 'NONE', *, *, #124, .F. ) ;
#256 = VERTEX_POINT ( 'NONE', #190 ) ;
#257 = EDGE_LOOP ( 'NONE', ( #212 ) ) ;
#258 = VERTEX_POINT ( 'NONE', #13 ) ;
#259 = AXIS2_PLACEMENT_3D ( 'NONE', #9, #182, #278 ) ;
#260 = FACE_BOUND ( 'NONE', #113, .T. ) ;
#261 = COORDINATED_UNIVERSAL_TIME_OFFSET ( 1, 0, .AHEAD. ) ;
#262 = SHAPE_DEFINITION_REPRESENTATION ( #215, #172 ) ;
#263 = APPROVAL_STATUS ( 'not_yet_approved' ) ;
#264 = ADVANCED_FACE ( 'NONE', ( #235, #35 ), #216, .T. ) ;
#265 = CARTESIAN_POINT ( 'NONE',  ( 0.0000000000000000000, 0.0000000000000000000, 0.0000000000000000000 ) ) ;
#266 = AXIS2_PLACEMENT_3D ( 'NONE', #100, #38, #75 ) ;
#267 = AXIS2_PLACEMENT_3D ( 'NONE', #103, #106, #62 ) ;
#268 = ORIENTED_EDGE ( 'NONE', *, *, #105, .T. ) ;
#269 = CIRCLE ( 'NONE', #69, 0.1599999999999999756 ) ;
#270 = CARTESIAN_POINT ( 'NONE',  ( 1.047444401652940007E-13, 4.499279347985518085E-33, 30.00000000000000000 ) ) ;
#271 = PLANE ( 'NONE',  #53 ) ;
#272 = CARTESIAN_POINT ( 'NONE',  ( 1.222018468595096674E-14, 0.2594999999999996199, 3.500000000000000000 ) ) ;
#273 = EDGE_LOOP ( 'NONE', ( #183 ) ) ;
#274 = DIRECTION ( 'NONE',  ( 0.0000000000000000000, 1.000000000000000000, 0.0000000000000000000 ) ) ;
#275 = CIRCLE ( 'NONE', #155, 0.6000000000000000888 ) ;
#276 = MANIFOLD_SOLID_BREP ( 'Corps-Déplacer/Copier1[2]', #282 ) ;
#277 = VERTEX_POINT ( 'NONE', #272 ) ;
#278 = DIRECTION ( 'NONE',  ( -4.275831445896958607E-31, -1.000000000000000000, -1.224646799147353207E-16 ) ) ;
#279 = VERTEX_POINT ( 'NONE', #163 ) ;
#280 = DIRECTION ( 'NONE',  ( -3.491481338843133355E-15, 1.224646799147353207E-16, -1.000000000000000000 ) ) ;
#281 = VERTEX_POINT ( 'NONE', #81 ) ;
#282 = CLOSED_SHELL ( 'NONE', ( #23, #185, #264, #42 ) ) ;
#283 = CIRCLE ( 'NONE', #48, 0.7499999999999971134 ) ;
ENDSEC;
END-ISO-10303-21;
