ISO-10303-21;
HEADER;
FILE_DESCRIPTION (( 'STEP AP203' ),
    '1' );
FILE_NAME ('986892.step',
    '2021-12-16T09:22:07',
    ( '' ),
    ( '' ),
    'SwSTEP 2.0',
    'SolidWorks 2019',
    '' );
FILE_SCHEMA (( 'CONFIG_CONTROL_DESIGN' ));
ENDSEC;

DATA;
#1 = DIRECTION ( 'NONE',  ( -3.491481338843133355E-15, 1.224646799147353207E-16, -1.000000000000000000 ) ) ;
#2 = PRODUCT ( '986892', '986892', '', ( #99 ) ) ;
#3 = ORIENTED_EDGE ( 'NONE', *, *, #107, .T. ) ;
#4 = ORIENTED_EDGE ( 'NONE', *, *, #36, .T. ) ;
#5 = EDGE_LOOP ( 'NONE', ( #11 ) ) ;
#6 = CIRCLE ( 'NONE', #25, 0.2085000000000001297 ) ;
#7 = FACE_OUTER_BOUND ( 'NONE', #246, .T. ) ;
#8 = DIRECTION ( 'NONE',  ( 0.0000000000000000000, 1.000000000000000000, 0.0000000000000000000 ) ) ;
#9 = APPROVAL_DATE_TIME ( #209, #81 ) ;
#10 = CC_DESIGN_DATE_AND_TIME_ASSIGNMENT ( #232, #282, ( #103 ) ) ;
#11 = ORIENTED_EDGE ( 'NONE', *, *, #74, .T. ) ;
#12 = PERSON_AND_ORGANIZATION_ROLE ( 'creator' ) ;
#13 = CARTESIAN_POINT ( 'NONE',  ( 1.082359215041371340E-14, -3.796405077356794918E-16, 3.100000000000000089 ) ) ;
#14 = EDGE_CURVE ( 'NONE', #188, #188, #269, .T. ) ;
#15 = CARTESIAN_POINT ( 'NONE',  ( 1.127542308347002789E-14, 0.2255370868554649189, 3.229409522551257350 ) ) ;
#16 = COORDINATED_UNIVERSAL_TIME_OFFSET ( 1, 0, .AHEAD. ) ;
#17 = DIRECTION ( 'NONE',  ( 3.491481338843133355E-15, -1.224646799147353207E-16, 1.000000000000000000 ) ) ;
#18 = CIRCLE ( 'NONE', #182, 0.2085000000000000464 ) ;
#19 = CYLINDRICAL_SURFACE ( 'NONE', #64, 0.2084999999999999076 ) ;
#20 = CIRCLE ( 'NONE', #258, 0.7499999999999970024 ) ;
#21 = EDGE_LOOP ( 'NONE', ( #222 ) ) ;
#22 = LOCAL_TIME ( 10, 22, 7.000000000000000000, #68 ) ;
#23 = DIRECTION ( 'NONE',  ( 4.275831445896958607E-31, 1.000000000000000000, 1.224646799147353207E-16 ) ) ;
#24 = CARTESIAN_POINT ( 'NONE',  ( 1.047444401652940007E-13, -3.673940397442059178E-15, 30.00000000000000000 ) ) ;
#25 = AXIS2_PLACEMENT_3D ( 'NONE', #13, #78, #235 ) ;
#26 = CARTESIAN_POINT ( 'NONE',  ( 1.042207179644675275E-13, -3.655570695454848748E-15, 29.84999999999999787 ) ) ;
#27 = CALENDAR_DATE ( 2021, 16, 12 ) ;
#28 = DIRECTION ( 'NONE',  ( 0.0000000000000000000, -1.000000000000000000, 0.0000000000000000000 ) ) ;
#29 = DIRECTION ( 'NONE',  ( -3.491481338843133355E-15, 1.224646799147353207E-16, -1.000000000000000000 ) ) ;
#30 = DIRECTION ( 'NONE',  ( 4.275831445896958607E-31, 1.000000000000000000, 1.224646799147353207E-16 ) ) ;
#31 = PERSON_AND_ORGANIZATION_ROLE ( 'design_supplier' ) ;
#32 = CONICAL_SURFACE ( 'NONE', #131, 0.7499999999999970024, 0.2617993877991426910 ) ;
#33 = CARTESIAN_POINT ( 'NONE',  ( 1.047444401652940007E-13, 0.5999999999999963141, 30.00000000000000000 ) ) ;
#34 = DATE_AND_TIME ( #166, #160 ) ;
#35 = DIRECTION ( 'NONE',  ( -4.275831445896958607E-31, -1.000000000000000000, -1.224646799147353207E-16 ) ) ;
#36 = EDGE_CURVE ( 'NONE', #146, #146, #220, .T. ) ;
#37 = DIRECTION ( 'NONE',  ( -3.491481338843133355E-15, 1.224646799147353207E-16, -1.000000000000000000 ) ) ;
#38 = CIRCLE ( 'NONE', #233, 0.2255370868554653352 ) ;
#39 = AXIS2_PLACEMENT_3D ( 'NONE', #278, #179, #72 ) ;
#40 = CARTESIAN_POINT ( 'NONE',  ( 1.127542308347002789E-14, -3.954886034928379498E-16, 3.229409522551257350 ) ) ;
#41 = CLOSED_SHELL ( 'NONE', ( #75, #109, #59, #168, #189, #88, #193 ) ) ;
#42 =( GEOMETRIC_REPRESENTATION_CONTEXT ( 3 ) GLOBAL_UNCERTAINTY_ASSIGNED_CONTEXT ( ( #130 ) ) GLOBAL_UNIT_ASSIGNED_CONTEXT ( ( #140, #54, #237 ) ) REPRESENTATION_CONTEXT ( 'NONE', 'WORKASPACE' ) );
#43 = AXIS2_PLACEMENT_3D ( 'NONE', #154, #94, #23 ) ;
#44 = EDGE_LOOP ( 'NONE', ( #104 ) ) ;
#45 = EDGE_LOOP ( 'NONE', ( #127 ) ) ;
#46 = FACE_OUTER_BOUND ( 'NONE', #150, .T. ) ;
#47 = DIRECTION ( 'NONE',  ( 3.491481338843133355E-15, -1.224646799147353207E-16, 1.000000000000000000 ) ) ;
#48 = PLANE ( 'NONE',  #174 ) ;
#49 = SHAPE_DEFINITION_REPRESENTATION ( #85, #121 ) ;
#50 = CARTESIAN_POINT ( 'NONE',  ( 2.365919782978951696E-32, 0.1300000000000000044, 6.776263578034402713E-18 ) ) ;
#51 = DATE_AND_TIME ( #228, #97 ) ;
#52 = FACE_OUTER_BOUND ( 'NONE', #194, .T. ) ;
#53 = AXIS2_PLACEMENT_3D ( 'NONE', #152, #267, #139 ) ;
#54 =( NAMED_UNIT ( * ) PLANE_ANGLE_UNIT ( ) SI_UNIT ( $, .RADIAN. ) );
#55 = DIRECTION ( 'NONE',  ( 0.0000000000000000000, 1.000000000000000000, 0.0000000000000000000 ) ) ;
#56 = PRODUCT_RELATED_PRODUCT_CATEGORY ( 'detail', '', ( #2 ) ) ;
#57 = EDGE_CURVE ( 'NONE', #261, #261, #105, .T. ) ;
#58 = PLANE ( 'NONE',  #205 ) ;
#59 = ADVANCED_FACE ( 'NONE', ( #114, #46 ), #159, .F. ) ;
#60 = ORIENTED_EDGE ( 'NONE', *, *, #14, .T. ) ;
#61 = EDGE_LOOP ( 'NONE', ( #129 ) ) ;
#62 = AXIS2_PLACEMENT_3D ( 'NONE', #202, #66, #70 ) ;
#63 = DIRECTION ( 'NONE',  ( 0.0000000000000000000, 1.000000000000000000, 0.0000000000000000000 ) ) ;
#64 = AXIS2_PLACEMENT_3D ( 'NONE', #100, #281, #203 ) ;
#65 = DIRECTION ( 'NONE',  ( 0.0000000000000000000, 1.000000000000000000, 0.0000000000000000000 ) ) ;
#66 = DIRECTION ( 'NONE',  ( -3.491481338843133355E-15, 1.224646799147353207E-16, -1.000000000000000000 ) ) ;
#67 = FACE_OUTER_BOUND ( 'NONE', #116, .T. ) ;
#68 = COORDINATED_UNIVERSAL_TIME_OFFSET ( 1, 0, .AHEAD. ) ;
#69 = CIRCLE ( 'NONE', #215, 0.2085000000000000464 ) ;
#70 = DIRECTION ( 'NONE',  ( 4.275831445896958607E-31, 1.000000000000000000, 1.224646799147353207E-16 ) ) ;
#71 = DIRECTION ( 'NONE',  ( 4.275831445896958607E-31, 1.000000000000000000, 1.224646799147353454E-16 ) ) ;
#72 = DIRECTION ( 'NONE',  ( 1.000000000000000000, 0.0000000000000000000, 0.0000000000000000000 ) ) ;
#73 = MANIFOLD_SOLID_BREP ( 'Corps-Déplacer/Copier1[2]', #153 ) ;
#74 = EDGE_CURVE ( 'NONE', #83, #83, #18, .T. ) ;
#75 = ADVANCED_FACE ( 'NONE', ( #7 ), #229, .F. ) ;
#76 = CARTESIAN_POINT ( 'NONE',  ( 1.082359215041371340E-14, 0.2084999999999997689, 3.100000000000000089 ) ) ;
#77 = COORDINATED_UNIVERSAL_TIME_OFFSET ( 1, 0, .AHEAD. ) ;
#78 = DIRECTION ( 'NONE',  ( -3.491481338843133355E-15, 1.224646799147353207E-16, -1.000000000000000000 ) ) ;
#79 = LOCAL_TIME ( 10, 22, 7.000000000000000000, #204 ) ;
#80 = VERTEX_POINT ( 'NONE', #126 ) ;
#81 = APPROVAL ( #162, 'UNSPECIFIED' ) ;
#82 = MANIFOLD_SOLID_BREP ( 'Corps-Déplacer/Copier1[1]', #41 ) ;
#83 = VERTEX_POINT ( 'NONE', #122 ) ;
#84 = ORGANIZATION ( 'UNSPECIFIED', 'UNSPECIFIED', '' ) ;
#85 = PRODUCT_DEFINITION_SHAPE ( 'NONE', 'NONE',  #103 ) ;
#86 = EDGE_LOOP ( 'NONE', ( #218 ) ) ;
#87 = EDGE_LOOP ( 'NONE', ( #264 ) ) ;
#88 = ADVANCED_FACE ( 'NONE', ( #245, #176 ), #191, .T. ) ;
#89 = ORIENTED_EDGE ( 'NONE', *, *, #57, .T. ) ;
#90 = APPROVAL ( #201, 'UNSPECIFIED' ) ;
#91 = CARTESIAN_POINT ( 'NONE',  ( 1.810937715343869651E-14, -6.351914449257581400E-16, 5.186731761092285176 ) ) ;
#92 = DIRECTION ( 'NONE',  ( -3.491481338843133355E-15, 1.224646799147353207E-16, -1.000000000000000000 ) ) ;
#93 = SECURITY_CLASSIFICATION_LEVEL ( 'unclassified' ) ;
#94 = DIRECTION ( 'NONE',  ( -3.491481338843133355E-15, 1.224646799147353207E-16, -1.000000000000000000 ) ) ;
#95 = PERSON_AND_ORGANIZATION ( #136, #84 ) ;
#96 = VERTEX_POINT ( 'NONE', #236 ) ;
#97 = LOCAL_TIME ( 10, 22, 7.000000000000000000, #16 ) ;
#98 = CARTESIAN_POINT ( 'NONE',  ( 0.0000000000000000000, 0.0000000000000000000, 0.0000000000000000000 ) ) ;
#99 = MECHANICAL_CONTEXT ( 'NONE', #241, 'mechanical' ) ;
#100 = CARTESIAN_POINT ( 'NONE',  ( 0.0000000000000000000, 0.0000000000000000000, 0.0000000000000000000 ) ) ;
#101 = DIRECTION ( 'NONE',  ( 0.0000000000000000000, 1.000000000000000000, 0.0000000000000000000 ) ) ;
#102 = CC_DESIGN_APPROVAL ( #211, ( #251 ) ) ;
#103 = PRODUCT_DEFINITION ( 'UNKNOWN', '', #240, #224 ) ;
#104 = ORIENTED_EDGE ( 'NONE', *, *, #107, .F. ) ;
#105 = CIRCLE ( 'NONE', #53, 0.6000000000000000888 ) ;
#106 = APPROVAL_PERSON_ORGANIZATION ( #186, #90, #115 ) ;
#107 = EDGE_CURVE ( 'NONE', #96, #96, #20, .T. ) ;
#108 = CARTESIAN_POINT ( 'NONE',  ( 8.728703347107833388E-15, -3.061616997868383141E-16, 2.500000000000000000 ) ) ;
#109 = ADVANCED_FACE ( 'NONE', ( #180, #274 ), #271, .T. ) ;
#110 = EDGE_LOOP ( 'NONE', ( #128 ) ) ;
#111 = AXIS2_PLACEMENT_3D ( 'NONE', #227, #272, #223 ) ;
#112 = ADVANCED_FACE ( 'NONE', ( #155 ), #198, .F. ) ;
#113 = PERSON_AND_ORGANIZATION_ROLE ( 'classification_officer' ) ;
#114 = FACE_OUTER_BOUND ( 'NONE', #110, .T. ) ;
#115 = APPROVAL_ROLE ( '' ) ;
#116 = EDGE_LOOP ( 'NONE', ( #3 ) ) ;
#117 = COORDINATED_UNIVERSAL_TIME_OFFSET ( 1, 0, .AHEAD. ) ;
#118 = FACE_BOUND ( 'NONE', #217, .T. ) ;
#119 = CC_DESIGN_APPROVAL ( #81, ( #240 ) ) ;
#120 = APPROVAL_STATUS ( 'not_yet_approved' ) ;
#121 = ADVANCED_BREP_SHAPE_REPRESENTATION ( '986892', ( #82, #73, #39 ), #42 ) ;
#122 = CARTESIAN_POINT ( 'NONE',  ( 8.728703347107833388E-15, 0.2084999999999997689, 2.500000000000000000 ) ) ;
#123 = CALENDAR_DATE ( 2021, 16, 12 ) ;
#124 = DIRECTION ( 'NONE',  ( -3.491481338843133355E-15, 1.224646799147353207E-16, -1.000000000000000000 ) ) ;
#125 = APPLICATION_CONTEXT ( 'configuration controlled 3d designs of mechanical parts and assemblies' ) ;
#126 = CARTESIAN_POINT ( 'NONE',  ( 8.728703347107833388E-15, 0.2084999999999997689, 2.500000000000000000 ) ) ;
#127 = ORIENTED_EDGE ( 'NONE', *, *, #276, .T. ) ;
#128 = ORIENTED_EDGE ( 'NONE', *, *, #262, .F. ) ;
#129 = ORIENTED_EDGE ( 'NONE', *, *, #36, .F. ) ;
#130 = UNCERTAINTY_MEASURE_WITH_UNIT (LENGTH_MEASURE( 1.000000000000000082E-05 ), #140, 'distance_accuracy_value', 'NONE');
#131 = AXIS2_PLACEMENT_3D ( 'NONE', #252, #157, #28 ) ;
#132 = ORIENTED_EDGE ( 'NONE', *, *, #279, .T. ) ;
#133 = DIRECTION ( 'NONE',  ( 0.0000000000000000000, 1.000000000000000000, 0.0000000000000000000 ) ) ;
#134 = CARTESIAN_POINT ( 'NONE',  ( -1.596330548343547537E-32, 5.599173836792765110E-34, -4.572072405440595353E-18 ) ) ;
#135 = APPLICATION_PROTOCOL_DEFINITION ( 'international standard', 'config_control_design', 1994, #241 ) ;
#136 = PERSON ( 'UNSPECIFIED', 'UNSPECIFIED', 'UNSPECIFIED', ('UNSPECIFIED'), ('UNSPECIFIED'), ('UNSPECIFIED') ) ;
#137 = FACE_OUTER_BOUND ( 'NONE', #239, .T. ) ;
#138 = DATE_TIME_ROLE ( 'classification_date' ) ;
#139 = DIRECTION ( 'NONE',  ( 0.0000000000000000000, 1.000000000000000000, 0.0000000000000000000 ) ) ;
#140 =( LENGTH_UNIT ( ) NAMED_UNIT ( * ) SI_UNIT ( .MILLI., .METRE. ) );
#141 = PERSON_AND_ORGANIZATION ( #136, #84 ) ;
#142 = AXIS2_PLACEMENT_3D ( 'NONE', #165, #17, #256 ) ;
#143 = CARTESIAN_POINT ( 'NONE',  ( 8.728703347107833388E-15, -3.061616997868383141E-16, 2.500000000000000000 ) ) ;
#144 = PERSON_AND_ORGANIZATION ( #136, #84 ) ;
#145 = VERTEX_POINT ( 'NONE', #50 ) ;
#146 = VERTEX_POINT ( 'NONE', #254 ) ;
#147 = CARTESIAN_POINT ( 'NONE',  ( 1.022885281393956666E-15, 0.2084999999999997689, 0.2929659883941637122 ) ) ;
#148 = CIRCLE ( 'NONE', #195, 0.1300000000000000044 ) ;
#149 = APPROVAL_PERSON_ORGANIZATION ( #141, #211, #249 ) ;
#150 = EDGE_LOOP ( 'NONE', ( #243 ) ) ;
#151 = AXIS2_PLACEMENT_3D ( 'NONE', #177, #47, #197 ) ;
#152 = CARTESIAN_POINT ( 'NONE',  ( 1.047444401652940007E-13, -3.673940397442059178E-15, 30.00000000000000000 ) ) ;
#153 = CLOSED_SHELL ( 'NONE', ( #112, #219, #184, #170 ) ) ;
#154 = CARTESIAN_POINT ( 'NONE',  ( 1.082359215041371498E-14, -4.336808689942017736E-16, 3.100000000000000533 ) ) ;
#155 = FACE_OUTER_BOUND ( 'NONE', #45, .T. ) ;
#156 = PERSON_AND_ORGANIZATION ( #136, #84 ) ;
#157 = DIRECTION ( 'NONE',  ( 3.491481338843133355E-15, -1.224646799147353207E-16, 1.000000000000000000 ) ) ;
#158 = PERSON_AND_ORGANIZATION ( #136, #84 ) ;
#159 = TOROIDAL_SURFACE ( 'NONE', #43, 0.7085000000000001297, 0.5000000000000000000 ) ;
#160 = LOCAL_TIME ( 10, 22, 7.000000000000000000, #77 ) ;
#161 = EDGE_LOOP ( 'NONE', ( #242 ) ) ;
#162 = APPROVAL_STATUS ( 'not_yet_approved' ) ;
#163 = FACE_OUTER_BOUND ( 'NONE', #44, .T. ) ;
#164 = APPLICATION_PROTOCOL_DEFINITION ( 'international standard', 'config_control_design', 1994, #125 ) ;
#165 = CARTESIAN_POINT ( 'NONE',  ( 1.022885281393956666E-15, -3.587798599459532632E-17, 0.2929659883941637122 ) ) ;
#166 = CALENDAR_DATE ( 2021, 16, 12 ) ;
#167 = DIRECTION ( 'NONE',  ( -3.491481338843133355E-15, 1.224646799147353207E-16, -1.000000000000000000 ) ) ;
#168 = ADVANCED_FACE ( 'NONE', ( #178, #67 ), #32, .T. ) ;
#169 = CYLINDRICAL_SURFACE ( 'NONE', #250, 0.7499999999999984457 ) ;
#170 = ADVANCED_FACE ( 'NONE', ( #137 ), #48, .T. ) ;
#171 = EDGE_LOOP ( 'NONE', ( #89 ) ) ;
#172 = CC_DESIGN_PERSON_AND_ORGANIZATION_ASSIGNMENT ( #156, #226, ( #2 ) ) ;
#173 = ORIENTED_EDGE ( 'NONE', *, *, #14, .F. ) ;
#174 = AXIS2_PLACEMENT_3D ( 'NONE', #185, #208, #35 ) ;
#175 = EDGE_LOOP ( 'NONE', ( #4 ) ) ;
#176 = FACE_BOUND ( 'NONE', #171, .T. ) ;
#177 = CARTESIAN_POINT ( 'NONE',  ( 8.728703347107833388E-15, 1.563499573424982711E-33, 2.500000000000000000 ) ) ;
#178 = FACE_BOUND ( 'NONE', #161, .T. ) ;
#179 = DIRECTION ( 'NONE',  ( 0.0000000000000000000, 0.0000000000000000000, 1.000000000000000000 ) ) ;
#180 = FACE_OUTER_BOUND ( 'NONE', #21, .T. ) ;
#181 = PERSON_AND_ORGANIZATION ( #136, #84 ) ;
#182 = AXIS2_PLACEMENT_3D ( 'NONE', #108, #29, #133 ) ;
#183 = VERTEX_POINT ( 'NONE', #76 ) ;
#184 = ADVANCED_FACE ( 'NONE', ( #210, #207 ), #19, .T. ) ;
#185 = CARTESIAN_POINT ( 'NONE',  ( 8.728703347107833388E-15, 1.563499573424982711E-33, 2.500000000000000000 ) ) ;
#186 = PERSON_AND_ORGANIZATION ( #136, #84 ) ;
#187 = FACE_OUTER_BOUND ( 'NONE', #87, .T. ) ;
#188 = VERTEX_POINT ( 'NONE', #147 ) ;
#189 = ADVANCED_FACE ( 'NONE', ( #163, #280 ), #169, .T. ) ;
#190 = AXIS2_PLACEMENT_3D ( 'NONE', #26, #92, #63 ) ;
#191 = CONICAL_SURFACE ( 'NONE', #265, 0.6000000000000000888, 0.7853981633974450594 ) ;
#192 = ORIENTED_EDGE ( 'NONE', *, *, #276, .F. ) ;
#193 = ADVANCED_FACE ( 'NONE', ( #187 ), #58, .F. ) ;
#194 = EDGE_LOOP ( 'NONE', ( #60 ) ) ;
#195 = AXIS2_PLACEMENT_3D ( 'NONE', #277, #37, #213 ) ;
#196 = EDGE_CURVE ( 'NONE', #238, #238, #38, .T. ) ;
#197 = DIRECTION ( 'NONE',  ( -4.275831445896958607E-31, -1.000000000000000000, -1.224646799147353207E-16 ) ) ;
#198 = PLANE ( 'NONE',  #199 ) ;
#199 = AXIS2_PLACEMENT_3D ( 'NONE', #134, #248, #225 ) ;
#200 = DIRECTION ( 'NONE',  ( -3.491481338843133355E-15, 1.224646799147353207E-16, -1.000000000000000000 ) ) ;
#201 = APPROVAL_STATUS ( 'not_yet_approved' ) ;
#202 = CARTESIAN_POINT ( 'NONE',  ( 0.0000000000000000000, 0.0000000000000000000, 0.0000000000000000000 ) ) ;
#203 = DIRECTION ( 'NONE',  ( 4.275831445896958607E-31, 1.000000000000000000, 1.224646799147353207E-16 ) ) ;
#204 = COORDINATED_UNIVERSAL_TIME_OFFSET ( 1, 0, .AHEAD. ) ;
#205 = AXIS2_PLACEMENT_3D ( 'NONE', #231, #124, #30 ) ;
#206 = CC_DESIGN_APPROVAL ( #90, ( #103 ) ) ;
#207 = FACE_OUTER_BOUND ( 'NONE', #5, .T. ) ;
#208 = DIRECTION ( 'NONE',  ( 3.491481338843133355E-15, -1.224646799147353207E-16, 1.000000000000000000 ) ) ;
#209 = DATE_AND_TIME ( #123, #79 ) ;
#210 = FACE_OUTER_BOUND ( 'NONE', #263, .T. ) ;
#211 = APPROVAL ( #120, 'UNSPECIFIED' ) ;
#212 = CC_DESIGN_SECURITY_CLASSIFICATION ( #251, ( #240 ) ) ;
#213 = DIRECTION ( 'NONE',  ( 4.275831445896958607E-31, 1.000000000000000000, 1.224646799147353207E-16 ) ) ;
#214 = CC_DESIGN_DATE_AND_TIME_ASSIGNMENT ( #253, #138, ( #251 ) ) ;
#215 = AXIS2_PLACEMENT_3D ( 'NONE', #143, #167, #101 ) ;
#216 = ORIENTED_EDGE ( 'NONE', *, *, #74, .F. ) ;
#217 = EDGE_LOOP ( 'NONE', ( #192 ) ) ;
#218 = ORIENTED_EDGE ( 'NONE', *, *, #262, .T. ) ;
#219 = ADVANCED_FACE ( 'NONE', ( #118, #52 ), #283, .T. ) ;
#220 = CIRCLE ( 'NONE', #190, 0.7499999999999998890 ) ;
#221 = LOCAL_TIME ( 10, 22, 7.000000000000000000, #117 ) ;
#222 = ORIENTED_EDGE ( 'NONE', *, *, #279, .F. ) ;
#223 = DIRECTION ( 'NONE',  ( 0.0000000000000000000, 1.000000000000000000, 0.0000000000000000000 ) ) ;
#224 = DESIGN_CONTEXT ( 'detailed design', #125, 'design' ) ;
#225 = DIRECTION ( 'NONE',  ( -4.275831445896958607E-31, -1.000000000000000000, -1.224646799147353207E-16 ) ) ;
#226 = PERSON_AND_ORGANIZATION_ROLE ( 'design_owner' ) ;
#227 = CARTESIAN_POINT ( 'NONE',  ( 1.022885281393956666E-15, -3.587798599459532632E-17, 0.2929659883941637122 ) ) ;
#228 = CALENDAR_DATE ( 2021, 16, 12 ) ;
#229 = PLANE ( 'NONE',  #151 ) ;
#230 = PERSON_AND_ORGANIZATION_ROLE ( 'creator' ) ;
#231 = CARTESIAN_POINT ( 'NONE',  ( 1.047444401652940007E-13, 4.499279347985518085E-33, 30.00000000000000000 ) ) ;
#232 = DATE_AND_TIME ( #27, #221 ) ;
#233 = AXIS2_PLACEMENT_3D ( 'NONE', #40, #1, #55 ) ;
#234 = APPROVAL_PERSON_ORGANIZATION ( #95, #81, #257 ) ;
#235 = DIRECTION ( 'NONE',  ( 0.0000000000000000000, 1.000000000000000000, 0.0000000000000000000 ) ) ;
#236 = CARTESIAN_POINT ( 'NONE',  ( 1.810937715343869651E-14, 0.7499999999999963363, 5.186731761092285176 ) ) ;
#237 =( NAMED_UNIT ( * ) SI_UNIT ( $, .STERADIAN. ) SOLID_ANGLE_UNIT ( ) );
#238 = VERTEX_POINT ( 'NONE', #15 ) ;
#239 = EDGE_LOOP ( 'NONE', ( #216 ) ) ;
#240 = PRODUCT_DEFINITION_FORMATION_WITH_SPECIFIED_SOURCE ( 'ANY', '', #2, .NOT_KNOWN. ) ;
#241 = APPLICATION_CONTEXT ( 'configuration controlled 3d designs of mechanical parts and assemblies' ) ;
#242 = ORIENTED_EDGE ( 'NONE', *, *, #196, .F. ) ;
#243 = ORIENTED_EDGE ( 'NONE', *, *, #196, .T. ) ;
#244 = CC_DESIGN_PERSON_AND_ORGANIZATION_ASSIGNMENT ( #144, #230, ( #103 ) ) ;
#245 = FACE_OUTER_BOUND ( 'NONE', #61, .T. ) ;
#246 = EDGE_LOOP ( 'NONE', ( #132 ) ) ;
#247 = CALENDAR_DATE ( 2021, 16, 12 ) ;
#248 = DIRECTION ( 'NONE',  ( 3.491481338843133355E-15, -1.224646799147353207E-16, 1.000000000000000000 ) ) ;
#249 = APPROVAL_ROLE ( '' ) ;
#250 = AXIS2_PLACEMENT_3D ( 'NONE', #98, #259, #71 ) ;
#251 = SECURITY_CLASSIFICATION ( '', '', #93 ) ;
#252 = CARTESIAN_POINT ( 'NONE',  ( 1.810937715343869651E-14, -6.351914449257581400E-16, 5.186731761092285176 ) ) ;
#253 = DATE_AND_TIME ( #247, #22 ) ;
#254 = CARTESIAN_POINT ( 'NONE',  ( 1.042207179644675275E-13, 0.7499999999999962252, 29.84999999999999787 ) ) ;
#255 = APPROVAL_DATE_TIME ( #34, #90 ) ;
#256 = DIRECTION ( 'NONE',  ( 0.0000000000000000000, -1.000000000000000000, 0.0000000000000000000 ) ) ;
#257 = APPROVAL_ROLE ( '' ) ;
#258 = AXIS2_PLACEMENT_3D ( 'NONE', #91, #200, #8 ) ;
#259 = DIRECTION ( 'NONE',  ( -3.491481338843133355E-15, 1.224646799147353207E-16, -1.000000000000000000 ) ) ;
#260 = CC_DESIGN_PERSON_AND_ORGANIZATION_ASSIGNMENT ( #181, #31, ( #240 ) ) ;
#261 = VERTEX_POINT ( 'NONE', #33 ) ;
#262 = EDGE_CURVE ( 'NONE', #183, #183, #6, .T. ) ;
#263 = EDGE_LOOP ( 'NONE', ( #173 ) ) ;
#264 = ORIENTED_EDGE ( 'NONE', *, *, #57, .F. ) ;
#265 = AXIS2_PLACEMENT_3D ( 'NONE', #24, #270, #65 ) ;
#266 = CC_DESIGN_PERSON_AND_ORGANIZATION_ASSIGNMENT ( #273, #113, ( #251 ) ) ;
#267 = DIRECTION ( 'NONE',  ( -3.491481338843133355E-15, 1.224646799147353207E-16, -1.000000000000000000 ) ) ;
#268 = CC_DESIGN_PERSON_AND_ORGANIZATION_ASSIGNMENT ( #158, #12, ( #240 ) ) ;
#269 = CIRCLE ( 'NONE', #111, 0.2084999999999997689 ) ;
#270 = DIRECTION ( 'NONE',  ( -3.491481338843133355E-15, 1.224646799147353207E-16, -1.000000000000000000 ) ) ;
#271 = CYLINDRICAL_SURFACE ( 'NONE', #62, 0.2085000000000000742 ) ;
#272 = DIRECTION ( 'NONE',  ( -3.491481338843133355E-15, 1.224646799147353207E-16, -1.000000000000000000 ) ) ;
#273 = PERSON_AND_ORGANIZATION ( #136, #84 ) ;
#274 = FACE_OUTER_BOUND ( 'NONE', #86, .T. ) ;
#275 = APPROVAL_DATE_TIME ( #51, #211 ) ;
#276 = EDGE_CURVE ( 'NONE', #145, #145, #148, .T. ) ;
#277 = CARTESIAN_POINT ( 'NONE',  ( -3.192661096687095073E-32, 1.119834767358553022E-33, -9.144144810881190706E-18 ) ) ;
#278 = CARTESIAN_POINT ( 'NONE',  ( 0.0000000000000000000, 0.0000000000000000000, 0.0000000000000000000 ) ) ;
#279 = EDGE_CURVE ( 'NONE', #80, #80, #69, .T. ) ;
#280 = FACE_OUTER_BOUND ( 'NONE', #175, .T. ) ;
#281 = DIRECTION ( 'NONE',  ( -3.491481338843133355E-15, 1.224646799147353207E-16, -1.000000000000000000 ) ) ;
#282 = DATE_TIME_ROLE ( 'creation_date' ) ;
#283 = CONICAL_SURFACE ( 'NONE', #142, 0.2084999999999997689, 0.2617993877991428575 ) ;
ENDSEC;
END-ISO-10303-21;
