ISO-10303-21;
HEADER;
FILE_DESCRIPTION (( 'STEP AP203' ),
    '1' );
FILE_NAME ('986891.step',
    '2021-12-16T09:22:06',
    ( '' ),
    ( '' ),
    'SwSTEP 2.0',
    'SolidWorks 2019',
    '' );
FILE_SCHEMA (( 'CONFIG_CONTROL_DESIGN' ));
ENDSEC;

DATA;
#1 = DATE_AND_TIME ( #262, #8 ) ;
#2 = AXIS2_PLACEMENT_3D ( 'NONE', #228, #203, #178 ) ;
#3 = APPROVAL_ROLE ( '' ) ;
#4 = APPROVAL ( #23, 'UNSPECIFIED' ) ;
#5 = FACE_OUTER_BOUND ( 'NONE', #148, .T. ) ;
#6 = CC_DESIGN_DATE_AND_TIME_ASSIGNMENT ( #255, #197, ( #106 ) ) ;
#7 = DIRECTION ( 'NONE',  ( 3.491481338843133355E-15, -1.224646799147353207E-16, 1.000000000000000000 ) ) ;
#8 = LOCAL_TIME ( 10, 22, 6.000000000000000000, #282 ) ;
#9 = DIRECTION ( 'NONE',  ( -3.491481338843133355E-15, 1.224646799147353207E-16, -1.000000000000000000 ) ) ;
#10 = FACE_OUTER_BOUND ( 'NONE', #24, .T. ) ;
#11 = CARTESIAN_POINT ( 'NONE',  ( 1.495668584410184048E-14, 0.7499999999999963363, 4.283765082089078469 ) ) ;
#12 = CARTESIAN_POINT ( 'NONE',  ( 7.783941744626894536E-15, -2.730239235781026537E-16, 2.229409522551257350 ) ) ;
#13 = CONICAL_SURFACE ( 'NONE', #109, 0.6000000000000000888, 0.7853981633974450594 ) ;
#14 = VERTEX_POINT ( 'NONE', #125 ) ;
#15 = VERTEX_POINT ( 'NONE', #60 ) ;
#16 = CALENDAR_DATE ( 2021, 16, 12 ) ;
#17 = CIRCLE ( 'NONE', #129, 0.1824999999999998290 ) ;
#18 = ORIENTED_EDGE ( 'NONE', *, *, #69, .F. ) ;
#19 = ADVANCED_FACE ( 'NONE', ( #261 ), #152, .T. ) ;
#20 = CC_DESIGN_PERSON_AND_ORGANIZATION_ASSIGNMENT ( #238, #192, ( #176 ) ) ;
#21 = DATE_AND_TIME ( #195, #63 ) ;
#22 = ORIENTED_EDGE ( 'NONE', *, *, #127, .T. ) ;
#23 = APPROVAL_STATUS ( 'not_yet_approved' ) ;
#24 = EDGE_LOOP ( 'NONE', ( #214 ) ) ;
#25 = APPROVAL_PERSON_ORGANIZATION ( #236, #4, #3 ) ;
#26 = COORDINATED_UNIVERSAL_TIME_OFFSET ( 1, 0, .AHEAD. ) ;
#27 = AXIS2_PLACEMENT_3D ( 'NONE', #186, #226, #205 ) ;
#28 = ORIENTED_EDGE ( 'NONE', *, *, #204, .F. ) ;
#29 = PERSON ( 'UNSPECIFIED', 'UNSPECIFIED', 'UNSPECIFIED', ('UNSPECIFIED'), ('UNSPECIFIED'), ('UNSPECIFIED') ) ;
#30 = DIRECTION ( 'NONE',  ( 3.491481338843133355E-15, -1.224646799147353207E-16, 1.000000000000000000 ) ) ;
#31 = DIRECTION ( 'NONE',  ( 0.0000000000000000000, -1.000000000000000000, 0.0000000000000000000 ) ) ;
#32 = FACE_OUTER_BOUND ( 'NONE', #167, .T. ) ;
#33 = FACE_BOUND ( 'NONE', #62, .T. ) ;
#34 = CARTESIAN_POINT ( 'NONE',  ( 5.237222008264700033E-15, 1.368530801678942057E-33, 1.500000000000000000 ) ) ;
#35 = CLOSED_SHELL ( 'NONE', ( #104, #48, #209, #124, #280, #227, #201 ) ) ;
#36 = DIRECTION ( 'NONE',  ( -3.491481338843133355E-15, 1.224646799147353207E-16, -1.000000000000000000 ) ) ;
#37 = CARTESIAN_POINT ( 'NONE',  ( 5.237222008264700033E-15, 0.1824999999999998013, 1.500000000000000000 ) ) ;
#38 = CIRCLE ( 'NONE', #233, 0.1995370868554650068 ) ;
#39 = APPLICATION_PROTOCOL_DEFINITION ( 'international standard', 'config_control_design', 1994, #185 ) ;
#40 = AXIS2_PLACEMENT_3D ( 'NONE', #75, #270, #264 ) ;
#41 =( NAMED_UNIT ( * ) PLANE_ANGLE_UNIT ( ) SI_UNIT ( $, .RADIAN. ) );
#42 = VERTEX_POINT ( 'NONE', #107 ) ;
#43 = APPROVAL_STATUS ( 'not_yet_approved' ) ;
#44 = ORIENTED_EDGE ( 'NONE', *, *, #278, .T. ) ;
#45 = FACE_OUTER_BOUND ( 'NONE', #47, .T. ) ;
#46 = APPROVAL_DATE_TIME ( #64, #257 ) ;
#47 = EDGE_LOOP ( 'NONE', ( #116 ) ) ;
#48 = ADVANCED_FACE ( 'NONE', ( #237, #45 ), #217, .T. ) ;
#49 = PRODUCT_RELATED_PRODUCT_CATEGORY ( 'detail', '', ( #239 ) ) ;
#50 = ORIENTED_EDGE ( 'NONE', *, *, #265, .T. ) ;
#51 = DIRECTION ( 'NONE',  ( 0.0000000000000000000, 1.000000000000000000, 0.0000000000000000000 ) ) ;
#52 = CARTESIAN_POINT ( 'NONE',  ( -1.760227349498589739E-32, 6.174046429385562857E-34, -5.041491500801842454E-18 ) ) ;
#53 = AXIS2_PLACEMENT_3D ( 'NONE', #208, #78, #246 ) ;
#54 = PLANE ( 'NONE',  #221 ) ;
#55 = PLANE ( 'NONE',  #229 ) ;
#56 = CC_DESIGN_DATE_AND_TIME_ASSIGNMENT ( #1, #133, ( #176 ) ) ;
#57 = DIRECTION ( 'NONE',  ( 0.0000000000000000000, 1.000000000000000000, 0.0000000000000000000 ) ) ;
#58 = VERTEX_POINT ( 'NONE', #188 ) ;
#59 = CARTESIAN_POINT ( 'NONE',  ( 7.783941744626894536E-15, 0.1995370868554647292, 2.229409522551257350 ) ) ;
#60 = CARTESIAN_POINT ( 'NONE',  ( 9.447029668925084777E-16, 0.1824999999999998013, 0.2705736835487501102 ) ) ;
#61 = APPROVAL_DATE_TIME ( #110, #101 ) ;
#62 = EDGE_LOOP ( 'NONE', ( #18 ) ) ;
#63 = LOCAL_TIME ( 10, 22, 6.000000000000000000, #66 ) ;
#64 = DATE_AND_TIME ( #151, #131 ) ;
#65 = EDGE_LOOP ( 'NONE', ( #114 ) ) ;
#66 = COORDINATED_UNIVERSAL_TIME_OFFSET ( 1, 0, .AHEAD. ) ;
#67 = ORIENTED_EDGE ( 'NONE', *, *, #72, .T. ) ;
#68 = SECURITY_CLASSIFICATION_LEVEL ( 'unclassified' ) ;
#69 = EDGE_CURVE ( 'NONE', #58, #58, #180, .T. ) ;
#70 = ORIENTED_EDGE ( 'NONE', *, *, #69, .T. ) ;
#71 = CYLINDRICAL_SURFACE ( 'NONE', #91, 0.1824999999999999123 ) ;
#72 = EDGE_CURVE ( 'NONE', #15, #15, #17, .T. ) ;
#73 = CC_DESIGN_PERSON_AND_ORGANIZATION_ASSIGNMENT ( #189, #81, ( #239 ) ) ;
#74 = DIRECTION ( 'NONE',  ( -3.491481338843133355E-15, 1.224646799147353207E-16, -1.000000000000000000 ) ) ;
#75 = CARTESIAN_POINT ( 'NONE',  ( -3.520454698997179479E-32, 1.234809285877112571E-33, -1.008298300160368491E-17 ) ) ;
#76 = CARTESIAN_POINT ( 'NONE',  ( 0.0000000000000000000, 0.0000000000000000000, 0.0000000000000000000 ) ) ;
#77 = AXIS2_PLACEMENT_3D ( 'NONE', #52, #7, #225 ) ;
#78 = DIRECTION ( 'NONE',  ( -3.491481338843133355E-15, 1.224646799147353207E-16, -1.000000000000000000 ) ) ;
#79 = VERTEX_POINT ( 'NONE', #59 ) ;
#80 = MECHANICAL_CONTEXT ( 'NONE', #179, 'mechanical' ) ;
#81 = PERSON_AND_ORGANIZATION_ROLE ( 'design_owner' ) ;
#82 = APPROVAL_ROLE ( '' ) ;
#83 = CARTESIAN_POINT ( 'NONE',  ( 1.047444401652940007E-13, -3.673940397442059178E-15, 30.00000000000000000 ) ) ;
#84 = CIRCLE ( 'NONE', #252, 0.1824999999999999956 ) ;
#85 = MANIFOLD_SOLID_BREP ( 'Corps-Déplacer/Copier1[1]', #35 ) ;
#86 = ADVANCED_FACE ( 'NONE', ( #202 ), #141, .F. ) ;
#87 = ADVANCED_FACE ( 'NONE', ( #32, #97 ), #71, .T. ) ;
#88 = PERSON_AND_ORGANIZATION_ROLE ( 'classification_officer' ) ;
#89 = DIRECTION ( 'NONE',  ( -4.275831445896958607E-31, -1.000000000000000000, -1.224646799147353207E-16 ) ) ;
#90 = PERSON_AND_ORGANIZATION ( #29, #177 ) ;
#91 = AXIS2_PLACEMENT_3D ( 'NONE', #76, #139, #121 ) ;
#92 = COORDINATED_UNIVERSAL_TIME_OFFSET ( 1, 0, .AHEAD. ) ;
#93 = ORIENTED_EDGE ( 'NONE', *, *, #265, .F. ) ;
#94 = ADVANCED_BREP_SHAPE_REPRESENTATION ( '986891', ( #85, #273, #283 ), #96 ) ;
#95 = DIRECTION ( 'NONE',  ( 3.491481338843133355E-15, -1.224646799147353207E-16, 1.000000000000000000 ) ) ;
#96 =( GEOMETRIC_REPRESENTATION_CONTEXT ( 3 ) GLOBAL_UNCERTAINTY_ASSIGNED_CONTEXT ( ( #156 ) ) GLOBAL_UNIT_ASSIGNED_CONTEXT ( ( #248, #41, #275 ) ) REPRESENTATION_CONTEXT ( 'NONE', 'WORKASPACE' ) );
#97 = FACE_OUTER_BOUND ( 'NONE', #222, .T. ) ;
#98 = FACE_BOUND ( 'NONE', #263, .T. ) ;
#99 = CARTESIAN_POINT ( 'NONE',  ( 5.237222008264700033E-15, -1.836970198721029934E-16, 1.500000000000000000 ) ) ;
#100 = FACE_OUTER_BOUND ( 'NONE', #199, .T. ) ;
#101 = APPROVAL ( #276, 'UNSPECIFIED' ) ;
#102 = CONICAL_SURFACE ( 'NONE', #194, 0.1824999999999998290, 0.2617993877991427465 ) ;
#103 = VERTEX_POINT ( 'NONE', #11 ) ;
#104 = ADVANCED_FACE ( 'NONE', ( #142 ), #54, .F. ) ;
#105 = DIRECTION ( 'NONE',  ( 0.0000000000000000000, 1.000000000000000000, 0.0000000000000000000 ) ) ;
#106 = SECURITY_CLASSIFICATION ( '', '', #68 ) ;
#107 = CARTESIAN_POINT ( 'NONE',  ( 7.332110811570581624E-15, 0.1824999999999998013, 2.100000000000000089 ) ) ;
#108 = CARTESIAN_POINT ( 'NONE',  ( 0.0000000000000000000, 0.0000000000000000000, 0.0000000000000000000 ) ) ;
#109 = AXIS2_PLACEMENT_3D ( 'NONE', #182, #244, #230 ) ;
#110 = DATE_AND_TIME ( #16, #272 ) ;
#111 = CARTESIAN_POINT ( 'NONE',  ( 5.237222008264700033E-15, 1.368530801678942057E-33, 1.500000000000000000 ) ) ;
#112 = CALENDAR_DATE ( 2021, 16, 12 ) ;
#113 = EDGE_LOOP ( 'NONE', ( #44 ) ) ;
#114 = ORIENTED_EDGE ( 'NONE', *, *, #173, .F. ) ;
#115 = CIRCLE ( 'NONE', #2, 0.7499999999999998890 ) ;
#116 = ORIENTED_EDGE ( 'NONE', *, *, #173, .T. ) ;
#117 = FACE_OUTER_BOUND ( 'NONE', #113, .T. ) ;
#118 = CARTESIAN_POINT ( 'NONE',  ( 1.047444401652940007E-13, 4.499279347985518085E-33, 30.00000000000000000 ) ) ;
#119 = DIRECTION ( 'NONE',  ( -3.491481338843133355E-15, 1.224646799147353207E-16, -1.000000000000000000 ) ) ;
#120 = CARTESIAN_POINT ( 'NONE',  ( 9.447029668925084777E-16, -3.313571954914857098E-17, 0.2705736835487501102 ) ) ;
#121 = DIRECTION ( 'NONE',  ( 4.275831445896958607E-31, 1.000000000000000000, 1.224646799147353207E-16 ) ) ;
#122 = ADVANCED_FACE ( 'NONE', ( #33, #241 ), #102, .T. ) ;
#123 = CIRCLE ( 'NONE', #145, 0.6000000000000000888 ) ;
#124 = ADVANCED_FACE ( 'NONE', ( #267, #5 ), #259, .T. ) ;
#125 = CARTESIAN_POINT ( 'NONE',  ( 5.237222008264700033E-15, 0.1824999999999998013, 1.500000000000000000 ) ) ;
#126 = CIRCLE ( 'NONE', #243, 0.1824999999999999956 ) ;
#127 = EDGE_CURVE ( 'NONE', #103, #103, #171, .T. ) ;
#128 = PERSON_AND_ORGANIZATION ( #29, #177 ) ;
#129 = AXIS2_PLACEMENT_3D ( 'NONE', #245, #159, #224 ) ;
#130 = CYLINDRICAL_SURFACE ( 'NONE', #206, 0.7499999999999983347 ) ;
#131 = LOCAL_TIME ( 10, 22, 6.000000000000000000, #26 ) ;
#132 = ORIENTED_EDGE ( 'NONE', *, *, #193, .F. ) ;
#133 = DATE_TIME_ROLE ( 'creation_date' ) ;
#134 = APPROVAL_PERSON_ORGANIZATION ( #128, #101, #82 ) ;
#135 = ORIENTED_EDGE ( 'NONE', *, *, #278, .F. ) ;
#136 = TOROIDAL_SURFACE ( 'NONE', #166, 0.6825000000000001066, 0.5000000000000000000 ) ;
#137 = DIRECTION ( 'NONE',  ( 4.275831445896958607E-31, 1.000000000000000000, 1.224646799147353207E-16 ) ) ;
#138 = CC_DESIGN_APPROVAL ( #257, ( #106 ) ) ;
#139 = DIRECTION ( 'NONE',  ( -3.491481338843133355E-15, 1.224646799147353207E-16, -1.000000000000000000 ) ) ;
#140 = AXIS2_PLACEMENT_3D ( 'NONE', #184, #30, #207 ) ;
#141 = PLANE ( 'NONE',  #77 ) ;
#142 = FACE_OUTER_BOUND ( 'NONE', #196, .T. ) ;
#143 = DIRECTION ( 'NONE',  ( 0.0000000000000000000, 1.000000000000000000, 0.0000000000000000000 ) ) ;
#144 = DIRECTION ( 'NONE',  ( 4.275831445896958607E-31, 1.000000000000000000, 1.224646799147353454E-16 ) ) ;
#145 = AXIS2_PLACEMENT_3D ( 'NONE', #83, #162, #105 ) ;
#146 = PRODUCT_DEFINITION_SHAPE ( 'NONE', 'NONE',  #176 ) ;
#147 = DIRECTION ( 'NONE',  ( -3.491481338843133355E-15, 1.224646799147353207E-16, -1.000000000000000000 ) ) ;
#148 = EDGE_LOOP ( 'NONE', ( #22 ) ) ;
#149 = PERSON_AND_ORGANIZATION ( #29, #177 ) ;
#150 = DIRECTION ( 'NONE',  ( 3.491481338843133355E-15, -1.224646799147353207E-16, 1.000000000000000000 ) ) ;
#151 = CALENDAR_DATE ( 2021, 16, 12 ) ;
#152 = PLANE ( 'NONE',  #212 ) ;
#153 = CC_DESIGN_APPROVAL ( #4, ( #247 ) ) ;
#154 = EDGE_LOOP ( 'NONE', ( #28 ) ) ;
#155 = DIRECTION ( 'NONE',  ( -4.275831445896958607E-31, -1.000000000000000000, -1.224646799147353207E-16 ) ) ;
#156 = UNCERTAINTY_MEASURE_WITH_UNIT (LENGTH_MEASURE( 1.000000000000000082E-05 ), #248, 'distance_accuracy_value', 'NONE');
#157 = DIRECTION ( 'NONE',  ( 4.275831445896958607E-31, 1.000000000000000000, 1.224646799147353207E-16 ) ) ;
#158 = CARTESIAN_POINT ( 'NONE',  ( 1.495668584410184048E-14, -5.246099196079588824E-16, 4.283765082089078469 ) ) ;
#159 = DIRECTION ( 'NONE',  ( -3.491481338843133355E-15, 1.224646799147353207E-16, -1.000000000000000000 ) ) ;
#160 = DIRECTION ( 'NONE',  ( 0.0000000000000000000, 0.0000000000000000000, 1.000000000000000000 ) ) ;
#161 = CIRCLE ( 'NONE', #53, 0.1825000000000000511 ) ;
#162 = DIRECTION ( 'NONE',  ( -3.491481338843133355E-15, 1.224646799147353207E-16, -1.000000000000000000 ) ) ;
#163 = DIRECTION ( 'NONE',  ( 0.0000000000000000000, 1.000000000000000000, 0.0000000000000000000 ) ) ;
#164 = LOCAL_TIME ( 10, 22, 6.000000000000000000, #168 ) ;
#165 = FACE_OUTER_BOUND ( 'NONE', #218, .T. ) ;
#166 = AXIS2_PLACEMENT_3D ( 'NONE', #266, #74, #157 ) ;
#167 = EDGE_LOOP ( 'NONE', ( #169 ) ) ;
#168 = COORDINATED_UNIVERSAL_TIME_OFFSET ( 1, 0, .AHEAD. ) ;
#169 = ORIENTED_EDGE ( 'NONE', *, *, #72, .F. ) ;
#170 = ORIENTED_EDGE ( 'NONE', *, *, #269, .T. ) ;
#171 = CIRCLE ( 'NONE', #234, 0.7499999999999968914 ) ;
#172 = EDGE_LOOP ( 'NONE', ( #67 ) ) ;
#173 = EDGE_CURVE ( 'NONE', #42, #42, #161, .T. ) ;
#174 = APPROVAL_ROLE ( '' ) ;
#175 = EDGE_LOOP ( 'NONE', ( #135 ) ) ;
#176 = PRODUCT_DEFINITION ( 'UNKNOWN', '', #247, #231 ) ;
#177 = ORGANIZATION ( 'UNSPECIFIED', 'UNSPECIFIED', '' ) ;
#178 = DIRECTION ( 'NONE',  ( 0.0000000000000000000, 1.000000000000000000, 0.0000000000000000000 ) ) ;
#179 = APPLICATION_CONTEXT ( 'configuration controlled 3d designs of mechanical parts and assemblies' ) ;
#180 = CIRCLE ( 'NONE', #40, 0.1100000000000000144 ) ;
#181 = FACE_OUTER_BOUND ( 'NONE', #154, .T. ) ;
#182 = CARTESIAN_POINT ( 'NONE',  ( 1.047444401652940007E-13, -3.673940397442059178E-15, 30.00000000000000000 ) ) ;
#183 = CC_DESIGN_SECURITY_CLASSIFICATION ( #106, ( #247 ) ) ;
#184 = CARTESIAN_POINT ( 'NONE',  ( 1.495668584410184048E-14, -5.246099196079588824E-16, 4.283765082089078469 ) ) ;
#185 = APPLICATION_CONTEXT ( 'configuration controlled 3d designs of mechanical parts and assemblies' ) ;
#186 = CARTESIAN_POINT ( 'NONE',  ( 0.0000000000000000000, 0.0000000000000000000, 0.0000000000000000000 ) ) ;
#187 = CARTESIAN_POINT ( 'NONE',  ( 1.042207179644675275E-13, 0.7499999999999962252, 29.84999999999999787 ) ) ;
#188 = CARTESIAN_POINT ( 'NONE',  ( 1.182959891489475848E-32, 0.1100000000000000144, 3.388131789017201356E-18 ) ) ;
#189 = PERSON_AND_ORGANIZATION ( #29, #177 ) ;
#190 = VERTEX_POINT ( 'NONE', #274 ) ;
#191 = CC_DESIGN_APPROVAL ( #101, ( #176 ) ) ;
#192 = PERSON_AND_ORGANIZATION_ROLE ( 'creator' ) ;
#193 = EDGE_CURVE ( 'NONE', #251, #251, #84, .T. ) ;
#194 = AXIS2_PLACEMENT_3D ( 'NONE', #120, #95, #31 ) ;
#195 = CALENDAR_DATE ( 2021, 16, 12 ) ;
#196 = EDGE_LOOP ( 'NONE', ( #254 ) ) ;
#197 = DATE_TIME_ROLE ( 'classification_date' ) ;
#198 = APPROVAL_PERSON_ORGANIZATION ( #213, #257, #174 ) ;
#199 = EDGE_LOOP ( 'NONE', ( #93 ) ) ;
#200 = ORIENTED_EDGE ( 'NONE', *, *, #204, .T. ) ;
#201 = ADVANCED_FACE ( 'NONE', ( #100 ), #55, .F. ) ;
#202 = FACE_OUTER_BOUND ( 'NONE', #220, .T. ) ;
#203 = DIRECTION ( 'NONE',  ( -3.491481338843133355E-15, 1.224646799147353207E-16, -1.000000000000000000 ) ) ;
#204 = EDGE_CURVE ( 'NONE', #271, #271, #115, .T. ) ;
#205 = DIRECTION ( 'NONE',  ( 4.275831445896958607E-31, 1.000000000000000000, 1.224646799147353207E-16 ) ) ;
#206 = AXIS2_PLACEMENT_3D ( 'NONE', #108, #277, #144 ) ;
#207 = DIRECTION ( 'NONE',  ( 0.0000000000000000000, -1.000000000000000000, 0.0000000000000000000 ) ) ;
#208 = CARTESIAN_POINT ( 'NONE',  ( 7.332110811570581624E-15, -2.571758278209441957E-16, 2.100000000000000089 ) ) ;
#209 = ADVANCED_FACE ( 'NONE', ( #223, #117 ), #136, .F. ) ;
#210 = CARTESIAN_POINT ( 'NONE',  ( 0.0000000000000000000, 0.0000000000000000000, 0.0000000000000000000 ) ) ;
#211 = CARTESIAN_POINT ( 'NONE',  ( 5.237222008264700033E-15, -1.836970198721029934E-16, 1.500000000000000000 ) ) ;
#212 = AXIS2_PLACEMENT_3D ( 'NONE', #111, #150, #89 ) ;
#213 = PERSON_AND_ORGANIZATION ( #29, #177 ) ;
#214 = ORIENTED_EDGE ( 'NONE', *, *, #127, .F. ) ;
#215 = CLOSED_SHELL ( 'NONE', ( #86, #122, #87, #19 ) ) ;
#216 = PERSON_AND_ORGANIZATION_ROLE ( 'design_supplier' ) ;
#217 = CYLINDRICAL_SURFACE ( 'NONE', #27, 0.1825000000000000233 ) ;
#218 = EDGE_LOOP ( 'NONE', ( #200 ) ) ;
#219 = CC_DESIGN_PERSON_AND_ORGANIZATION_ASSIGNMENT ( #260, #216, ( #247 ) ) ;
#220 = EDGE_LOOP ( 'NONE', ( #70 ) ) ;
#221 = AXIS2_PLACEMENT_3D ( 'NONE', #34, #268, #155 ) ;
#222 = EDGE_LOOP ( 'NONE', ( #170 ) ) ;
#223 = FACE_OUTER_BOUND ( 'NONE', #65, .T. ) ;
#224 = DIRECTION ( 'NONE',  ( 0.0000000000000000000, 1.000000000000000000, 0.0000000000000000000 ) ) ;
#225 = DIRECTION ( 'NONE',  ( -4.275831445896958607E-31, -1.000000000000000000, -1.224646799147353207E-16 ) ) ;
#226 = DIRECTION ( 'NONE',  ( -3.491481338843133355E-15, 1.224646799147353207E-16, -1.000000000000000000 ) ) ;
#227 = ADVANCED_FACE ( 'NONE', ( #181, #98 ), #13, .T. ) ;
#228 = CARTESIAN_POINT ( 'NONE',  ( 1.042207179644675275E-13, -3.655570695454848748E-15, 29.84999999999999787 ) ) ;
#229 = AXIS2_PLACEMENT_3D ( 'NONE', #118, #242, #137 ) ;
#230 = DIRECTION ( 'NONE',  ( 0.0000000000000000000, 1.000000000000000000, 0.0000000000000000000 ) ) ;
#231 = DESIGN_CONTEXT ( 'detailed design', #185, 'design' ) ;
#232 = APPLICATION_PROTOCOL_DEFINITION ( 'international standard', 'config_control_design', 1994, #179 ) ;
#233 = AXIS2_PLACEMENT_3D ( 'NONE', #12, #36, #57 ) ;
#234 = AXIS2_PLACEMENT_3D ( 'NONE', #158, #9, #51 ) ;
#235 = EDGE_LOOP ( 'NONE', ( #132 ) ) ;
#236 = PERSON_AND_ORGANIZATION ( #29, #177 ) ;
#237 = FACE_OUTER_BOUND ( 'NONE', #235, .T. ) ;
#238 = PERSON_AND_ORGANIZATION ( #29, #177 ) ;
#239 = PRODUCT ( '986891', '986891', '', ( #80 ) ) ;
#240 = SHAPE_DEFINITION_REPRESENTATION ( #146, #94 ) ;
#241 = FACE_OUTER_BOUND ( 'NONE', #172, .T. ) ;
#242 = DIRECTION ( 'NONE',  ( -3.491481338843133355E-15, 1.224646799147353207E-16, -1.000000000000000000 ) ) ;
#243 = AXIS2_PLACEMENT_3D ( 'NONE', #211, #147, #163 ) ;
#244 = DIRECTION ( 'NONE',  ( -3.491481338843133355E-15, 1.224646799147353207E-16, -1.000000000000000000 ) ) ;
#245 = CARTESIAN_POINT ( 'NONE',  ( 9.447029668925084777E-16, -3.313571954914857098E-17, 0.2705736835487501102 ) ) ;
#246 = DIRECTION ( 'NONE',  ( 0.0000000000000000000, 1.000000000000000000, 0.0000000000000000000 ) ) ;
#247 = PRODUCT_DEFINITION_FORMATION_WITH_SPECIFIED_SOURCE ( 'ANY', '', #239, .NOT_KNOWN. ) ;
#248 =( LENGTH_UNIT ( ) NAMED_UNIT ( * ) SI_UNIT ( .MILLI., .METRE. ) );
#249 = CC_DESIGN_PERSON_AND_ORGANIZATION_ASSIGNMENT ( #149, #279, ( #247 ) ) ;
#250 = DIRECTION ( 'NONE',  ( 1.000000000000000000, 0.0000000000000000000, 0.0000000000000000000 ) ) ;
#251 = VERTEX_POINT ( 'NONE', #37 ) ;
#252 = AXIS2_PLACEMENT_3D ( 'NONE', #99, #119, #143 ) ;
#253 = CC_DESIGN_PERSON_AND_ORGANIZATION_ASSIGNMENT ( #90, #88, ( #106 ) ) ;
#254 = ORIENTED_EDGE ( 'NONE', *, *, #193, .T. ) ;
#255 = DATE_AND_TIME ( #112, #164 ) ;
#256 = ORIENTED_EDGE ( 'NONE', *, *, #269, .F. ) ;
#257 = APPROVAL ( #43, 'UNSPECIFIED' ) ;
#258 = EDGE_LOOP ( 'NONE', ( #256 ) ) ;
#259 = CONICAL_SURFACE ( 'NONE', #140, 0.7499999999999968914, 0.2617993877991428020 ) ;
#260 = PERSON_AND_ORGANIZATION ( #29, #177 ) ;
#261 = FACE_OUTER_BOUND ( 'NONE', #258, .T. ) ;
#262 = CALENDAR_DATE ( 2021, 16, 12 ) ;
#263 = EDGE_LOOP ( 'NONE', ( #50 ) ) ;
#264 = DIRECTION ( 'NONE',  ( 4.275831445896958607E-31, 1.000000000000000000, 1.224646799147353207E-16 ) ) ;
#265 = EDGE_CURVE ( 'NONE', #190, #190, #123, .T. ) ;
#266 = CARTESIAN_POINT ( 'NONE',  ( 7.332110811570581624E-15, -2.168404344971008868E-16, 2.100000000000000089 ) ) ;
#267 = FACE_BOUND ( 'NONE', #175, .T. ) ;
#268 = DIRECTION ( 'NONE',  ( 3.491481338843133355E-15, -1.224646799147353207E-16, 1.000000000000000000 ) ) ;
#269 = EDGE_CURVE ( 'NONE', #14, #14, #126, .T. ) ;
#270 = DIRECTION ( 'NONE',  ( -3.491481338843133355E-15, 1.224646799147353207E-16, -1.000000000000000000 ) ) ;
#271 = VERTEX_POINT ( 'NONE', #187 ) ;
#272 = LOCAL_TIME ( 10, 22, 6.000000000000000000, #92 ) ;
#273 = MANIFOLD_SOLID_BREP ( 'Corps-Déplacer/Copier1[2]', #215 ) ;
#274 = CARTESIAN_POINT ( 'NONE',  ( 1.047444401652940007E-13, 0.5999999999999963141, 30.00000000000000000 ) ) ;
#275 =( NAMED_UNIT ( * ) SI_UNIT ( $, .STERADIAN. ) SOLID_ANGLE_UNIT ( ) );
#276 = APPROVAL_STATUS ( 'not_yet_approved' ) ;
#277 = DIRECTION ( 'NONE',  ( -3.491481338843133355E-15, 1.224646799147353207E-16, -1.000000000000000000 ) ) ;
#278 = EDGE_CURVE ( 'NONE', #79, #79, #38, .T. ) ;
#279 = PERSON_AND_ORGANIZATION_ROLE ( 'creator' ) ;
#280 = ADVANCED_FACE ( 'NONE', ( #10, #165 ), #130, .T. ) ;
#281 = APPROVAL_DATE_TIME ( #21, #4 ) ;
#282 = COORDINATED_UNIVERSAL_TIME_OFFSET ( 1, 0, .AHEAD. ) ;
#283 = AXIS2_PLACEMENT_3D ( 'NONE', #210, #160, #250 ) ;
ENDSEC;
END-ISO-10303-21;
