ISO-10303-21;
HEADER;
FILE_DESCRIPTION (( 'STEP AP203' ),
    '1' );
FILE_NAME ('986890.step',
    '2021-12-16T09:22:06',
    ( '' ),
    ( '' ),
    'SwSTEP 2.0',
    'SolidWorks 2019',
    '' );
FILE_SCHEMA (( 'CONFIG_CONTROL_DESIGN' ));
ENDSEC;

DATA;
#1 = DATE_AND_TIME ( #22, #215 ) ;
#2 = EDGE_LOOP ( 'NONE', ( #72 ) ) ;
#3 = PERSON_AND_ORGANIZATION_ROLE ( 'creator' ) ;
#4 = DIRECTION ( 'NONE',  ( 4.275831445896959482E-31, 1.000000000000000000, 1.224646799147352961E-16 ) ) ;
#5 = PERSON_AND_ORGANIZATION ( #265, #67 ) ;
#6 = DIRECTION ( 'NONE',  ( -6.133534854736447851E-31, -1.000000000000000000, -1.726436580390938491E-16 ) ) ;
#7 = FACE_BOUND ( 'NONE', #28, .T. ) ;
#8 = EDGE_CURVE ( 'NONE', #254, #254, #184, .T. ) ;
#9 = ORIENTED_EDGE ( 'NONE', *, *, #126, .F. ) ;
#10 = DIRECTION ( 'NONE',  ( -3.491481338843133355E-15, 1.224646799147353207E-16, -1.000000000000000000 ) ) ;
#11 = EDGE_LOOP ( 'NONE', ( #161 ) ) ;
#12 = CONICAL_SURFACE ( 'NONE', #207, 0.7499999999999967804, 0.2617993877991427465 ) ;
#13 = DIRECTION ( 'NONE',  ( -4.275831445896958607E-31, -1.000000000000000000, -1.224646799147353207E-16 ) ) ;
#14 = DIRECTION ( 'NONE',  ( 0.0000000000000000000, 1.000000000000000000, 0.0000000000000000000 ) ) ;
#15 = CLOSED_SHELL ( 'NONE', ( #244, #116, #216, #152 ) ) ;
#16 = CARTESIAN_POINT ( 'NONE',  ( -1.090321912297212553E-31, 3.824334459646365464E-33, -3.122806071357893735E-17 ) ) ;
#17 = FACE_OUTER_BOUND ( 'NONE', #137, .T. ) ;
#18 = CARTESIAN_POINT ( 'NONE',  ( -1.774439837234213785E-31, 0.09500000000000000111, -5.082197683525802034E-17 ) ) ;
#19 = CC_DESIGN_DATE_AND_TIME_ASSIGNMENT ( #238, #81, ( #24 ) ) ;
#20 = AXIS2_PLACEMENT_3D ( 'NONE', #232, #123, #208 ) ;
#21 = APPLICATION_PROTOCOL_DEFINITION ( 'international standard', 'config_control_design', 1994, #246 ) ;
#22 = CALENDAR_DATE ( 2021, 16, 12 ) ;
#23 = DIRECTION ( 'NONE',  ( -3.491481338843133355E-15, 1.224646799147353207E-16, -1.000000000000000000 ) ) ;
#24 = PRODUCT_DEFINITION ( 'UNKNOWN', '', #94, #70 ) ;
#25 = PERSON_AND_ORGANIZATION_ROLE ( 'design_owner' ) ;
#26 = LOCAL_TIME ( 10, 22, 6.000000000000000000, #87 ) ;
#27 = FACE_OUTER_BOUND ( 'NONE', #200, .T. ) ;
#28 = EDGE_LOOP ( 'NONE', ( #264 ) ) ;
#29 = CC_DESIGN_DATE_AND_TIME_ASSIGNMENT ( #239, #45, ( #134 ) ) ;
#30 =( NAMED_UNIT ( * ) PLANE_ANGLE_UNIT ( ) SI_UNIT ( $, .RADIAN. ) );
#31 = DIRECTION ( 'NONE',  ( -3.491481338843133355E-15, 1.224646799147353207E-16, -1.000000000000000000 ) ) ;
#32 = DIRECTION ( 'NONE',  ( 0.0000000000000000000, 1.000000000000000000, 0.0000000000000000000 ) ) ;
#33 = EDGE_LOOP ( 'NONE', ( #223 ) ) ;
#34 = SHAPE_DEFINITION_REPRESENTATION ( #140, #201 ) ;
#35 = DIRECTION ( 'NONE',  ( 3.491481338843133355E-15, -1.224646799147353207E-16, 1.000000000000000000 ) ) ;
#36 =( GEOMETRIC_REPRESENTATION_CONTEXT ( 3 ) GLOBAL_UNCERTAINTY_ASSIGNED_CONTEXT ( ( #143 ) ) GLOBAL_UNIT_ASSIGNED_CONTEXT ( ( #63, #30, #111 ) ) REPRESENTATION_CONTEXT ( 'NONE', 'WORKASPACE' ) );
#37 = DIRECTION ( 'NONE',  ( 0.0000000000000000000, 1.000000000000000000, 0.0000000000000000000 ) ) ;
#38 = DIRECTION ( 'NONE',  ( -3.491481338843133355E-15, 1.224646799147353207E-16, -1.000000000000000000 ) ) ;
#39 = FACE_OUTER_BOUND ( 'NONE', #159, .T. ) ;
#40 = CARTESIAN_POINT ( 'NONE',  ( 5.586370142149013368E-15, 0.1569999999999992513, 1.599999999999999867 ) ) ;
#41 = FACE_OUTER_BOUND ( 'NONE', #46, .T. ) ;
#42 = PERSON_AND_ORGANIZATION ( #265, #67 ) ;
#43 = CARTESIAN_POINT ( 'NONE',  ( 0.0000000000000000000, 0.0000000000000000000, 0.0000000000000000000 ) ) ;
#44 = FACE_OUTER_BOUND ( 'NONE', #228, .T. ) ;
#45 = DATE_TIME_ROLE ( 'classification_date' ) ;
#46 = EDGE_LOOP ( 'NONE', ( #65 ) ) ;
#47 = DATE_AND_TIME ( #194, #48 ) ;
#48 = LOCAL_TIME ( 10, 22, 6.000000000000000000, #62 ) ;
#49 = CARTESIAN_POINT ( 'NONE',  ( 8.078839165149647799E-16, -2.833675326961643483E-17, 0.2313871500692737115 ) ) ;
#50 = DIRECTION ( 'NONE',  ( 0.0000000000000000000, 1.000000000000000000, 0.0000000000000000000 ) ) ;
#51 = CARTESIAN_POINT ( 'NONE',  ( 3.491481338843133355E-15, 1.177311429389551866E-33, 1.000000000000000000 ) ) ;
#52 = AXIS2_PLACEMENT_3D ( 'NONE', #210, #147, #14 ) ;
#53 = CARTESIAN_POINT ( 'NONE',  ( 1.354322001131144103E-14, 0.7499999999999963363, 3.878932377682089427 ) ) ;
#54 = EDGE_LOOP ( 'NONE', ( #88 ) ) ;
#55 = ADVANCED_FACE ( 'NONE', ( #115, #133 ), #243, .T. ) ;
#56 = VERTEX_POINT ( 'NONE', #190 ) ;
#57 = FACE_OUTER_BOUND ( 'NONE', #54, .T. ) ;
#58 = FACE_OUTER_BOUND ( 'NONE', #90, .T. ) ;
#59 = CC_DESIGN_APPROVAL ( #213, ( #24 ) ) ;
#60 = DIRECTION ( 'NONE',  ( -3.491481338843133355E-15, 1.224646799147353207E-16, -1.000000000000000000 ) ) ;
#61 = APPROVAL_DATE_TIME ( #1, #96 ) ;
#62 = COORDINATED_UNIVERSAL_TIME_OFFSET ( 1, 0, .AHEAD. ) ;
#63 =( LENGTH_UNIT ( ) NAMED_UNIT ( * ) SI_UNIT ( .MILLI., .METRE. ) );
#64 = APPROVAL_STATUS ( 'not_yet_approved' ) ;
#65 = ORIENTED_EDGE ( 'NONE', *, *, #281, .F. ) ;
#66 = TOROIDAL_SURFACE ( 'NONE', #229, 0.6569999999999994733, 0.5000000000000001110 ) ;
#67 = ORGANIZATION ( 'UNSPECIFIED', 'UNSPECIFIED', '' ) ;
#68 = EDGE_LOOP ( 'NONE', ( #176 ) ) ;
#69 = CC_DESIGN_PERSON_AND_ORGANIZATION_ASSIGNMENT ( #257, #129, ( #94 ) ) ;
#70 = DESIGN_CONTEXT ( 'detailed design', #259, 'design' ) ;
#71 = ORIENTED_EDGE ( 'NONE', *, *, #196, .T. ) ;
#72 = ORIENTED_EDGE ( 'NONE', *, *, #100, .T. ) ;
#73 = AXIS2_PLACEMENT_3D ( 'NONE', #253, #187, #233 ) ;
#74 = PLANE ( 'NONE',  #234 ) ;
#75 = CIRCLE ( 'NONE', #98, 0.1569999999999993900 ) ;
#76 = DIRECTION ( 'NONE',  ( -3.491481338843133355E-15, 1.224646799147353207E-16, -1.000000000000000000 ) ) ;
#77 = DIRECTION ( 'NONE',  ( -4.275831445896958607E-31, -1.000000000000000000, -1.224646799147353207E-16 ) ) ;
#78 = CYLINDRICAL_SURFACE ( 'NONE', #73, 0.1569999999999993345 ) ;
#79 = CIRCLE ( 'NONE', #242, 0.7499999999999967804 ) ;
#80 = CARTESIAN_POINT ( 'NONE',  ( 1.047444401652940007E-13, 0.5999999999999963141, 30.00000000000000000 ) ) ;
#81 = DATE_TIME_ROLE ( 'creation_date' ) ;
#82 = PERSON_AND_ORGANIZATION ( #265, #67 ) ;
#83 = AXIS2_PLACEMENT_3D ( 'NONE', #16, #124, #13 ) ;
#84 = PRODUCT_RELATED_PRODUCT_CATEGORY ( 'detail', '', ( #182 ) ) ;
#85 = PERSON_AND_ORGANIZATION ( #265, #67 ) ;
#86 = ORIENTED_EDGE ( 'NONE', *, *, #8, .T. ) ;
#87 = COORDINATED_UNIVERSAL_TIME_OFFSET ( 1, 0, .AHEAD. ) ;
#88 = ORIENTED_EDGE ( 'NONE', *, *, #100, .F. ) ;
#89 = EDGE_CURVE ( 'NONE', #149, #149, #271, .T. ) ;
#90 = EDGE_LOOP ( 'NONE', ( #71 ) ) ;
#91 = CARTESIAN_POINT ( 'NONE',  ( 6.038201075205323914E-15, -2.117915836207348085E-16, 1.729409522551256018 ) ) ;
#92 = CARTESIAN_POINT ( 'NONE',  ( 8.078839165149647799E-16, -2.833675326961643483E-17, 0.2313871500692737115 ) ) ;
#93 = AXIS2_PLACEMENT_3D ( 'NONE', #266, #178, #221 ) ;
#94 = PRODUCT_DEFINITION_FORMATION_WITH_SPECIFIED_SOURCE ( 'ANY', '', #182, .NOT_KNOWN. ) ;
#95 = DIRECTION ( 'NONE',  ( 4.390590712981053363E-31, 1.000000000000000000, 1.224646799147353207E-16 ) ) ;
#96 = APPROVAL ( #171, 'UNSPECIFIED' ) ;
#97 = CARTESIAN_POINT ( 'NONE',  ( 3.491481338843133355E-15, -1.224646799147353207E-16, 1.000000000000000000 ) ) ;
#98 = AXIS2_PLACEMENT_3D ( 'NONE', #151, #252, #146 ) ;
#99 = FACE_OUTER_BOUND ( 'NONE', #68, .T. ) ;
#100 = EDGE_CURVE ( 'NONE', #235, #235, #121, .T. ) ;
#101 = CARTESIAN_POINT ( 'NONE',  ( 8.078839165149648785E-16, 0.1569999999999992513, 0.2313871500692737393 ) ) ;
#102 = VERTEX_POINT ( 'NONE', #277 ) ;
#103 = APPROVAL_PERSON_ORGANIZATION ( #42, #96, #241 ) ;
#104 = APPLICATION_PROTOCOL_DEFINITION ( 'international standard', 'config_control_design', 1994, #259 ) ;
#105 = DIRECTION ( 'NONE',  ( 0.0000000000000000000, 0.0000000000000000000, 1.000000000000000000 ) ) ;
#106 = CARTESIAN_POINT ( 'NONE',  ( 5.586370142149013368E-15, -1.959434878635764984E-16, 1.599999999999999867 ) ) ;
#107 = AXIS2_PLACEMENT_3D ( 'NONE', #106, #139, #50 ) ;
#108 = CC_DESIGN_APPROVAL ( #227, ( #134 ) ) ;
#109 = PERSON_AND_ORGANIZATION ( #265, #67 ) ;
#110 = ORIENTED_EDGE ( 'NONE', *, *, #192, .F. ) ;
#111 =( NAMED_UNIT ( * ) SI_UNIT ( $, .STERADIAN. ) SOLID_ANGLE_UNIT ( ) );
#112 = EDGE_LOOP ( 'NONE', ( #181 ) ) ;
#113 = FACE_BOUND ( 'NONE', #33, .T. ) ;
#114 = AXIS2_PLACEMENT_3D ( 'NONE', #240, #219, #247 ) ;
#115 = FACE_OUTER_BOUND ( 'NONE', #267, .T. ) ;
#116 = ADVANCED_FACE ( 'NONE', ( #113, #27 ), #273, .T. ) ;
#117 = CLOSED_SHELL ( 'NONE', ( #248, #55, #186, #209, #226, #148, #179 ) ) ;
#118 = FACE_OUTER_BOUND ( 'NONE', #141, .T. ) ;
#119 = FACE_OUTER_BOUND ( 'NONE', #203, .T. ) ;
#120 = PLANE ( 'NONE',  #83 ) ;
#121 = CIRCLE ( 'NONE', #107, 0.1569999999999994456 ) ;
#122 = APPROVAL_PERSON_ORGANIZATION ( #5, #213, #258 ) ;
#123 = DIRECTION ( 'NONE',  ( -3.491481338843133355E-15, 1.224646799147353207E-16, -1.000000000000000000 ) ) ;
#124 = DIRECTION ( 'NONE',  ( 3.491481338843133355E-15, -1.224646799147353207E-16, 1.000000000000000000 ) ) ;
#125 = DIRECTION ( 'NONE',  ( 1.000000000000000000, 0.0000000000000000000, 0.0000000000000000000 ) ) ;
#126 = EDGE_CURVE ( 'NONE', #212, #212, #278, .T. ) ;
#127 = CIRCLE ( 'NONE', #204, 0.1569999999999993900 ) ;
#128 = CC_DESIGN_APPROVAL ( #96, ( #94 ) ) ;
#129 = PERSON_AND_ORGANIZATION_ROLE ( 'design_supplier' ) ;
#130 = PERSON_AND_ORGANIZATION ( #265, #67 ) ;
#131 = PLANE ( 'NONE',  #157 ) ;
#132 = APPROVAL_ROLE ( '' ) ;
#133 = FACE_OUTER_BOUND ( 'NONE', #2, .T. ) ;
#134 = SECURITY_CLASSIFICATION ( '', '', #135 ) ;
#135 = SECURITY_CLASSIFICATION_LEVEL ( 'unclassified' ) ;
#136 = FACE_OUTER_BOUND ( 'NONE', #144, .T. ) ;
#137 = EDGE_LOOP ( 'NONE', ( #9 ) ) ;
#138 = ORIENTED_EDGE ( 'NONE', *, *, #192, .T. ) ;
#139 = DIRECTION ( 'NONE',  ( -3.491481338843133355E-15, 1.224646799147353207E-16, -1.000000000000000000 ) ) ;
#140 = PRODUCT_DEFINITION_SHAPE ( 'NONE', 'NONE',  #24 ) ;
#141 = EDGE_LOOP ( 'NONE', ( #86 ) ) ;
#142 = CARTESIAN_POINT ( 'NONE',  ( 1.354322001131144103E-14, -4.750322120437403513E-16, 3.878932377682089427 ) ) ;
#143 = UNCERTAINTY_MEASURE_WITH_UNIT (LENGTH_MEASURE( 1.000000000000000082E-05 ), #63, 'distance_accuracy_value', 'NONE');
#144 = EDGE_LOOP ( 'NONE', ( #110 ) ) ;
#145 = AXIS2_PLACEMENT_3D ( 'NONE', #92, #31, #183 ) ;
#146 = DIRECTION ( 'NONE',  ( 0.0000000000000000000, 1.000000000000000000, 0.0000000000000000000 ) ) ;
#147 = DIRECTION ( 'NONE',  ( -3.491481338843133355E-15, 1.224646799147353207E-16, -1.000000000000000000 ) ) ;
#148 = ADVANCED_FACE ( 'NONE', ( #155, #7 ), #191, .T. ) ;
#149 = VERTEX_POINT ( 'NONE', #236 ) ;
#150 = AXIS2_PLACEMENT_3D ( 'NONE', #51, #35, #220 ) ;
#151 = CARTESIAN_POINT ( 'NONE',  ( 3.491481338843133355E-15, -1.224646799147353207E-16, 1.000000000000000000 ) ) ;
#152 = ADVANCED_FACE ( 'NONE', ( #136 ), #270, .T. ) ;
#153 = CALENDAR_DATE ( 2021, 16, 12 ) ;
#154 = EDGE_CURVE ( 'NONE', #189, #189, #170, .T. ) ;
#155 = FACE_OUTER_BOUND ( 'NONE', #198, .T. ) ;
#156 = COORDINATED_UNIVERSAL_TIME_OFFSET ( 1, 0, .AHEAD. ) ;
#157 = AXIS2_PLACEMENT_3D ( 'NONE', #217, #23, #225 ) ;
#158 = CIRCLE ( 'NONE', #52, 0.6000000000000000888 ) ;
#159 = EDGE_LOOP ( 'NONE', ( #177 ) ) ;
#160 = DIRECTION ( 'NONE',  ( 0.0000000000000000000, 1.000000000000000000, 0.0000000000000000000 ) ) ;
#161 = ORIENTED_EDGE ( 'NONE', *, *, #281, .T. ) ;
#162 = CARTESIAN_POINT ( 'NONE',  ( 1.042207179644675275E-13, -3.655570695454848748E-15, 29.84999999999999787 ) ) ;
#163 = DIRECTION ( 'NONE',  ( 3.491481338843133355E-15, -1.224646799147353207E-16, 1.000000000000000000 ) ) ;
#164 = AXIS2_PLACEMENT_3D ( 'NONE', #49, #163, #6 ) ;
#165 = CC_DESIGN_PERSON_AND_ORGANIZATION_ASSIGNMENT ( #195, #283, ( #24 ) ) ;
#166 = AXIS2_PLACEMENT_3D ( 'NONE', #205, #10, #4 ) ;
#167 = FACE_OUTER_BOUND ( 'NONE', #11, .T. ) ;
#168 = DIRECTION ( 'NONE',  ( 0.0000000000000000000, 1.000000000000000000, 0.0000000000000000000 ) ) ;
#169 = FACE_BOUND ( 'NONE', #112, .T. ) ;
#170 = CIRCLE ( 'NONE', #166, 0.09500000000000000111 ) ;
#171 = APPROVAL_STATUS ( 'not_yet_approved' ) ;
#172 = COORDINATED_UNIVERSAL_TIME_OFFSET ( 1, 0, .AHEAD. ) ;
#173 = AXIS2_PLACEMENT_3D ( 'NONE', #91, #202, #160 ) ;
#174 = PERSON_AND_ORGANIZATION_ROLE ( 'classification_officer' ) ;
#175 = CALENDAR_DATE ( 2021, 16, 12 ) ;
#176 = ORIENTED_EDGE ( 'NONE', *, *, #89, .T. ) ;
#177 = ORIENTED_EDGE ( 'NONE', *, *, #154, .T. ) ;
#178 = DIRECTION ( 'NONE',  ( -3.491481338843133355E-15, 1.224646799147353207E-16, -1.000000000000000000 ) ) ;
#179 = ADVANCED_FACE ( 'NONE', ( #44 ), #131, .F. ) ;
#180 = CC_DESIGN_SECURITY_CLASSIFICATION ( #134, ( #94 ) ) ;
#181 = ORIENTED_EDGE ( 'NONE', *, *, #8, .F. ) ;
#182 = PRODUCT ( '986890', '986890', '', ( #197 ) ) ;
#183 = DIRECTION ( 'NONE',  ( 6.133534854736447851E-31, 1.000000000000000000, 1.726436580390938491E-16 ) ) ;
#184 = CIRCLE ( 'NONE', #173, 0.1740370868554642070 ) ;
#185 = DIRECTION ( 'NONE',  ( 3.491481338843133355E-15, -1.224646799147353207E-16, 1.000000000000000000 ) ) ;
#186 = ADVANCED_FACE ( 'NONE', ( #57, #118 ), #66, .F. ) ;
#187 = DIRECTION ( 'NONE',  ( -3.491481338843133355E-15, 1.224646799147353207E-16, -1.000000000000000000 ) ) ;
#188 = CARTESIAN_POINT ( 'NONE',  ( 3.491481338843133355E-15, 1.177311429389551866E-33, 1.000000000000000000 ) ) ;
#189 = VERTEX_POINT ( 'NONE', #18 ) ;
#190 = CARTESIAN_POINT ( 'NONE',  ( 3.491481338843133355E-15, 0.1569999999999992513, 1.000000000000000000 ) ) ;
#191 = CONICAL_SURFACE ( 'NONE', #114, 0.6000000000000000888, 0.7853981633974450594 ) ;
#192 = EDGE_CURVE ( 'NONE', #102, #102, #127, .T. ) ;
#193 = AXIS2_PLACEMENT_3D ( 'NONE', #43, #105, #125 ) ;
#194 = CALENDAR_DATE ( 2021, 16, 12 ) ;
#195 = PERSON_AND_ORGANIZATION ( #265, #67 ) ;
#196 = EDGE_CURVE ( 'NONE', #56, #56, #75, .T. ) ;
#197 = MECHANICAL_CONTEXT ( 'NONE', #246, 'mechanical' ) ;
#198 = EDGE_LOOP ( 'NONE', ( #224 ) ) ;
#199 = APPROVAL_STATUS ( 'not_yet_approved' ) ;
#200 = EDGE_LOOP ( 'NONE', ( #245 ) ) ;
#201 = ADVANCED_BREP_SHAPE_REPRESENTATION ( '986890', ( #268, #263, #193 ), #36 ) ;
#202 = DIRECTION ( 'NONE',  ( -3.491481338843133355E-15, 1.224646799147353207E-16, -1.000000000000000000 ) ) ;
#203 = EDGE_LOOP ( 'NONE', ( #138 ) ) ;
#204 = AXIS2_PLACEMENT_3D ( 'NONE', #97, #38, #37 ) ;
#205 = CARTESIAN_POINT ( 'NONE',  ( -2.180643824594425107E-31, 7.648668919292730929E-33, -6.245612142715787470E-17 ) ) ;
#206 = APPROVAL_DATE_TIME ( #262, #227 ) ;
#207 = AXIS2_PLACEMENT_3D ( 'NONE', #142, #185, #256 ) ;
#208 = DIRECTION ( 'NONE',  ( 4.275831445896958607E-31, 1.000000000000000000, 1.224646799147352961E-16 ) ) ;
#209 = ADVANCED_FACE ( 'NONE', ( #169, #167 ), #12, .T. ) ;
#210 = CARTESIAN_POINT ( 'NONE',  ( 1.047444401652940007E-13, -3.673940397442059178E-15, 30.00000000000000000 ) ) ;
#211 = CYLINDRICAL_SURFACE ( 'NONE', #20, 0.7499999999999983347 ) ;
#212 = VERTEX_POINT ( 'NONE', #101 ) ;
#213 = APPROVAL ( #64, 'UNSPECIFIED' ) ;
#214 = DIRECTION ( 'NONE',  ( 3.491481338843133355E-15, -1.224646799147353207E-16, 1.000000000000000000 ) ) ;
#215 = LOCAL_TIME ( 10, 22, 6.000000000000000000, #172 ) ;
#216 = ADVANCED_FACE ( 'NONE', ( #17, #119 ), #78, .T. ) ;
#217 = CARTESIAN_POINT ( 'NONE',  ( 1.047444401652940007E-13, 4.499279347985518085E-33, 30.00000000000000000 ) ) ;
#218 = CC_DESIGN_PERSON_AND_ORGANIZATION_ASSIGNMENT ( #82, #174, ( #134 ) ) ;
#219 = DIRECTION ( 'NONE',  ( -3.491481338843133355E-15, 1.224646799147353207E-16, -1.000000000000000000 ) ) ;
#220 = DIRECTION ( 'NONE',  ( -4.275831445896958607E-31, -1.000000000000000000, -1.224646799147353207E-16 ) ) ;
#221 = DIRECTION ( 'NONE',  ( 4.275831445896958607E-31, 1.000000000000000000, 1.224646799147353207E-16 ) ) ;
#222 = ORIENTED_EDGE ( 'NONE', *, *, #231, .F. ) ;
#223 = ORIENTED_EDGE ( 'NONE', *, *, #154, .F. ) ;
#224 = ORIENTED_EDGE ( 'NONE', *, *, #89, .F. ) ;
#225 = DIRECTION ( 'NONE',  ( 4.275831445896958607E-31, 1.000000000000000000, 1.224646799147353207E-16 ) ) ;
#226 = ADVANCED_FACE ( 'NONE', ( #41, #99 ), #211, .T. ) ;
#227 = APPROVAL ( #199, 'UNSPECIFIED' ) ;
#228 = EDGE_LOOP ( 'NONE', ( #222 ) ) ;
#229 = AXIS2_PLACEMENT_3D ( 'NONE', #276, #76, #95 ) ;
#230 = LOCAL_TIME ( 10, 22, 6.000000000000000000, #156 ) ;
#231 = EDGE_CURVE ( 'NONE', #280, #280, #158, .T. ) ;
#232 = CARTESIAN_POINT ( 'NONE',  ( 0.0000000000000000000, 0.0000000000000000000, 0.0000000000000000000 ) ) ;
#233 = DIRECTION ( 'NONE',  ( 4.275831445896958607E-31, 1.000000000000000000, 1.224646799147353454E-16 ) ) ;
#234 = AXIS2_PLACEMENT_3D ( 'NONE', #188, #214, #77 ) ;
#235 = VERTEX_POINT ( 'NONE', #40 ) ;
#236 = CARTESIAN_POINT ( 'NONE',  ( 1.042207179644675275E-13, 0.7499999999999962252, 29.84999999999999787 ) ) ;
#237 = CALENDAR_DATE ( 2021, 16, 12 ) ;
#238 = DATE_AND_TIME ( #153, #230 ) ;
#239 = DATE_AND_TIME ( #237, #26 ) ;
#240 = CARTESIAN_POINT ( 'NONE',  ( 1.047444401652940007E-13, -3.673940397442059178E-15, 30.00000000000000000 ) ) ;
#241 = APPROVAL_ROLE ( '' ) ;
#242 = AXIS2_PLACEMENT_3D ( 'NONE', #272, #60, #168 ) ;
#243 = CYLINDRICAL_SURFACE ( 'NONE', #93, 0.1569999999999994178 ) ;
#244 = ADVANCED_FACE ( 'NONE', ( #39 ), #120, .F. ) ;
#245 = ORIENTED_EDGE ( 'NONE', *, *, #126, .T. ) ;
#246 = APPLICATION_CONTEXT ( 'configuration controlled 3d designs of mechanical parts and assemblies' ) ;
#247 = DIRECTION ( 'NONE',  ( 0.0000000000000000000, 1.000000000000000000, 0.0000000000000000000 ) ) ;
#248 = ADVANCED_FACE ( 'NONE', ( #58 ), #74, .F. ) ;
#249 = AXIS2_PLACEMENT_3D ( 'NONE', #162, #269, #32 ) ;
#250 = VERTEX_POINT ( 'NONE', #53 ) ;
#251 = CC_DESIGN_PERSON_AND_ORGANIZATION_ASSIGNMENT ( #85, #3, ( #94 ) ) ;
#252 = DIRECTION ( 'NONE',  ( -3.491481338843133355E-15, 1.224646799147353207E-16, -1.000000000000000000 ) ) ;
#253 = CARTESIAN_POINT ( 'NONE',  ( 0.0000000000000000000, 0.0000000000000000000, 0.0000000000000000000 ) ) ;
#254 = VERTEX_POINT ( 'NONE', #274 ) ;
#255 = APPROVAL_PERSON_ORGANIZATION ( #109, #227, #132 ) ;
#256 = DIRECTION ( 'NONE',  ( 0.0000000000000000000, -1.000000000000000000, 0.0000000000000000000 ) ) ;
#257 = PERSON_AND_ORGANIZATION ( #265, #67 ) ;
#258 = APPROVAL_ROLE ( '' ) ;
#259 = APPLICATION_CONTEXT ( 'configuration controlled 3d designs of mechanical parts and assemblies' ) ;
#260 = COORDINATED_UNIVERSAL_TIME_OFFSET ( 1, 0, .AHEAD. ) ;
#261 = ORIENTED_EDGE ( 'NONE', *, *, #196, .F. ) ;
#262 = DATE_AND_TIME ( #175, #279 ) ;
#263 = MANIFOLD_SOLID_BREP ( 'Corps-Déplacer/Copier1[2]', #15 ) ;
#264 = ORIENTED_EDGE ( 'NONE', *, *, #231, .T. ) ;
#265 = PERSON ( 'UNSPECIFIED', 'UNSPECIFIED', 'UNSPECIFIED', ('UNSPECIFIED'), ('UNSPECIFIED'), ('UNSPECIFIED') ) ;
#266 = CARTESIAN_POINT ( 'NONE',  ( 0.0000000000000000000, 0.0000000000000000000, 0.0000000000000000000 ) ) ;
#267 = EDGE_LOOP ( 'NONE', ( #261 ) ) ;
#268 = MANIFOLD_SOLID_BREP ( 'Corps-Déplacer/Copier1[1]', #117 ) ;
#269 = DIRECTION ( 'NONE',  ( -3.491481338843133355E-15, 1.224646799147353207E-16, -1.000000000000000000 ) ) ;
#270 = PLANE ( 'NONE',  #150 ) ;
#271 = CIRCLE ( 'NONE', #249, 0.7499999999999998890 ) ;
#272 = CARTESIAN_POINT ( 'NONE',  ( 1.354322001131144103E-14, -4.750322120437403513E-16, 3.878932377682089427 ) ) ;
#273 = CONICAL_SURFACE ( 'NONE', #164, 0.1569999999999992790, 0.2617993877991429130 ) ;
#274 = CARTESIAN_POINT ( 'NONE',  ( 6.038201075205323914E-15, 0.1740370868554639849, 1.729409522551256018 ) ) ;
#275 = CC_DESIGN_PERSON_AND_ORGANIZATION_ASSIGNMENT ( #130, #25, ( #182 ) ) ;
#276 = CARTESIAN_POINT ( 'NONE',  ( 5.586370142149010213E-15, -2.168404344971008868E-16, 1.599999999999998979 ) ) ;
#277 = CARTESIAN_POINT ( 'NONE',  ( 3.491481338843133355E-15, 0.1569999999999992513, 1.000000000000000000 ) ) ;
#278 = CIRCLE ( 'NONE', #145, 0.1569999999999992790 ) ;
#279 = LOCAL_TIME ( 10, 22, 6.000000000000000000, #260 ) ;
#280 = VERTEX_POINT ( 'NONE', #80 ) ;
#281 = EDGE_CURVE ( 'NONE', #250, #250, #79, .T. ) ;
#282 = APPROVAL_DATE_TIME ( #47, #213 ) ;
#283 = PERSON_AND_ORGANIZATION_ROLE ( 'creator' ) ;
ENDSEC;
END-ISO-10303-21;
