ISO-10303-21;
HEADER;
FILE_DESCRIPTION (( 'STEP AP203' ),
    '1' );
FILE_NAME ('986889.step',
    '2021-12-16T08:57:38',
    ( '' ),
    ( '' ),
    'SwSTEP 2.0',
    'SolidWorks 2019',
    '' );
FILE_SCHEMA (( 'CONFIG_CONTROL_DESIGN' ));
ENDSEC;

DATA;
#1 = CARTESIAN_POINT ( 'NONE',  ( 2.244816336776805305E-14, 0.7380370868554638752, 6.429409522551257083 ) ) ;
#2 = CARTESIAN_POINT ( 'NONE',  ( 1.745740669421566678E-14, 5.406634016495986331E-33, 5.000000000000000000 ) ) ;
#3 = PERSON_AND_ORGANIZATION ( #199, #126 ) ;
#4 = MANIFOLD_SOLID_BREP ( 'Corps-Déplacer/Copier1[2]', #205 ) ;
#5 = APPROVAL_ROLE ( '' ) ;
#6 = DIRECTION ( 'NONE',  ( -3.491481338843133355E-15, 1.224646799147353207E-16, -1.000000000000000000 ) ) ;
#7 = CONICAL_SURFACE ( 'NONE', #217, 0.7499999999999971134, 0.2617993877991468543 ) ;
#8 = EDGE_LOOP ( 'NONE', ( #260 ) ) ;
#9 =( LENGTH_UNIT ( ) NAMED_UNIT ( * ) SI_UNIT ( .MILLI., .METRE. ) );
#10 = CC_DESIGN_APPROVAL ( #36, ( #108 ) ) ;
#11 = COORDINATED_UNIVERSAL_TIME_OFFSET ( 1, 0, .AHEAD. ) ;
#12 = CARTESIAN_POINT ( 'NONE',  ( 2.260404474073794498E-14, -7.928431617709984555E-16, 6.474055722213186037 ) ) ;
#13 = ADVANCED_FACE ( 'NONE', ( #197 ), #135, .F. ) ;
#14 = DIRECTION ( 'NONE',  ( -3.491481338843133355E-15, 1.224646799147353207E-16, -1.000000000000000000 ) ) ;
#15 = DIRECTION ( 'NONE',  ( -3.491481338843133355E-15, 1.224646799147353207E-16, -1.000000000000000000 ) ) ;
#16 = TOROIDAL_SURFACE ( 'NONE', #60, 1.221000000000000085, 0.5000000000000000000 ) ;
#17 = ADVANCED_FACE ( 'NONE', ( #223, #103 ), #272, .T. ) ;
#18 = CIRCLE ( 'NONE', #99, 0.7209999999999998632 ) ;
#19 = ADVANCED_FACE ( 'NONE', ( #56, #283 ), #54, .T. ) ;
#20 = PERSON_AND_ORGANIZATION ( #199, #126 ) ;
#21 = UNCERTAINTY_MEASURE_WITH_UNIT (LENGTH_MEASURE( 1.000000000000000082E-05 ), #9, 'distance_accuracy_value', 'NONE');
#22 = DIRECTION ( 'NONE',  ( 4.275831445896958607E-31, 1.000000000000000000, 1.224646799147353207E-16 ) ) ;
#23 = LOCAL_TIME ( 9, 57, 38.00000000000000000, #26 ) ;
#24 = ORIENTED_EDGE ( 'NONE', *, *, #165, .F. ) ;
#25 = FACE_OUTER_BOUND ( 'NONE', #183, .T. ) ;
#26 = COORDINATED_UNIVERSAL_TIME_OFFSET ( 1, 0, .AHEAD. ) ;
#27 = EDGE_LOOP ( 'NONE', ( #221 ) ) ;
#28 = CC_DESIGN_PERSON_AND_ORGANIZATION_ASSIGNMENT ( #85, #34, ( #108 ) ) ;
#29 = DIRECTION ( 'NONE',  ( 0.0000000000000000000, 1.000000000000000000, 0.0000000000000000000 ) ) ;
#30 = AXIS2_PLACEMENT_3D ( 'NONE', #204, #157, #219 ) ;
#31 = CARTESIAN_POINT ( 'NONE',  ( 2.199633243471174014E-14, -8.673617379884035472E-16, 6.299999999999999822 ) ) ;
#32 = PERSON_AND_ORGANIZATION ( #199, #126 ) ;
#33 = CARTESIAN_POINT ( 'NONE',  ( 3.140322965808199412E-15, -1.101477022254455602E-16, 0.8994242446241207389 ) ) ;
#34 = PERSON_AND_ORGANIZATION_ROLE ( 'classification_officer' ) ;
#35 = CARTESIAN_POINT ( 'NONE',  ( 0.0000000000000000000, 0.0000000000000000000, 0.0000000000000000000 ) ) ;
#36 = APPROVAL ( #58, 'UNSPECIFIED' ) ;
#37 = DIRECTION ( 'NONE',  ( 4.275831445896957731E-31, 1.000000000000000000, 1.224646799147353207E-16 ) ) ;
#38 = DIRECTION ( 'NONE',  ( -3.491481338843133355E-15, 1.224646799147353207E-16, -1.000000000000000000 ) ) ;
#39 = DIRECTION ( 'NONE',  ( -3.491481338843133355E-15, 1.224646799147353207E-16, -1.000000000000000000 ) ) ;
#40 = ADVANCED_FACE ( 'NONE', ( #139 ), #97, .T. ) ;
#41 = AXIS2_PLACEMENT_3D ( 'NONE', #35, #38, #210 ) ;
#42 = AXIS2_PLACEMENT_3D ( 'NONE', #128, #107, #212 ) ;
#43 = ORIENTED_EDGE ( 'NONE', *, *, #131, .F. ) ;
#44 = ADVANCED_FACE ( 'NONE', ( #263, #80 ), #16, .F. ) ;
#45 = CIRCLE ( 'NONE', #92, 0.7380370868554646524 ) ;
#46 = ORIENTED_EDGE ( 'NONE', *, *, #137, .F. ) ;
#47 = ADVANCED_BREP_SHAPE_REPRESENTATION ( '986889', ( #195, #4, #231 ), #84 ) ;
#48 = APPROVAL_STATUS ( 'not_yet_approved' ) ;
#49 = APPLICATION_PROTOCOL_DEFINITION ( 'international standard', 'config_control_design', 1994, #174 ) ;
#50 = ORIENTED_EDGE ( 'NONE', *, *, #137, .T. ) ;
#51 = PERSON_AND_ORGANIZATION_ROLE ( 'design_supplier' ) ;
#52 = AXIS2_PLACEMENT_3D ( 'NONE', #82, #169, #29 ) ;
#53 = CALENDAR_DATE ( 2021, 16, 12 ) ;
#54 = CYLINDRICAL_SURFACE ( 'NONE', #193, 0.7209999999999996412 ) ;
#55 = VERTEX_POINT ( 'NONE', #178 ) ;
#56 = FACE_OUTER_BOUND ( 'NONE', #241, .T. ) ;
#57 = EDGE_LOOP ( 'NONE', ( #24 ) ) ;
#58 = APPROVAL_STATUS ( 'not_yet_approved' ) ;
#59 = AXIS2_PLACEMENT_3D ( 'NONE', #245, #224, #62 ) ;
#60 = AXIS2_PLACEMENT_3D ( 'NONE', #31, #177, #22 ) ;
#61 = CARTESIAN_POINT ( 'NONE',  ( 2.260404474073794498E-14, 0.7499999999999963363, 6.474055722213186037 ) ) ;
#62 = DIRECTION ( 'NONE',  ( -4.275831445896958607E-31, -1.000000000000000000, -1.224646799147353207E-16 ) ) ;
#63 = CARTESIAN_POINT ( 'NONE',  ( 1.047444401652940007E-13, 4.499279347985518085E-33, 30.00000000000000000 ) ) ;
#64 = APPLICATION_CONTEXT ( 'configuration controlled 3d designs of mechanical parts and assemblies' ) ;
#65 = FACE_OUTER_BOUND ( 'NONE', #267, .T. ) ;
#66 = DIRECTION ( 'NONE',  ( -3.491481338843133355E-15, 1.224646799147353207E-16, -1.000000000000000000 ) ) ;
#67 = DIRECTION ( 'NONE',  ( 0.0000000000000000000, 1.000000000000000000, 0.0000000000000000000 ) ) ;
#68 = CARTESIAN_POINT ( 'NONE',  ( 2.260404474073794498E-14, -7.928431617709984555E-16, 6.474055722213186037 ) ) ;
#69 = APPROVAL_DATE_TIME ( #150, #36 ) ;
#70 = LOCAL_TIME ( 9, 57, 38.00000000000000000, #11 ) ;
#71 = PRODUCT_DEFINITION ( 'UNKNOWN', '', #268, #72 ) ;
#72 = DESIGN_CONTEXT ( 'detailed design', #64, 'design' ) ;
#73 = CYLINDRICAL_SURFACE ( 'NONE', #187, 0.7209999999999998632 ) ;
#74 = DATE_AND_TIME ( #133, #23 ) ;
#75 = COORDINATED_UNIVERSAL_TIME_OFFSET ( 1, 0, .AHEAD. ) ;
#76 = DIRECTION ( 'NONE',  ( -4.275831445896958607E-31, -1.000000000000000000, -1.224646799147353207E-16 ) ) ;
#77 = PERSON_AND_ORGANIZATION_ROLE ( 'design_owner' ) ;
#78 = EDGE_LOOP ( 'NONE', ( #257 ) ) ;
#79 =( NAMED_UNIT ( * ) SI_UNIT ( $, .STERADIAN. ) SOLID_ANGLE_UNIT ( ) );
#80 = FACE_OUTER_BOUND ( 'NONE', #158, .T. ) ;
#81 = CALENDAR_DATE ( 2021, 16, 12 ) ;
#82 = CARTESIAN_POINT ( 'NONE',  ( 1.042207179644675275E-13, -3.655570695454848748E-15, 29.84999999999999787 ) ) ;
#83 = AXIS2_PLACEMENT_3D ( 'NONE', #63, #66, #189 ) ;
#84 =( GEOMETRIC_REPRESENTATION_CONTEXT ( 3 ) GLOBAL_UNCERTAINTY_ASSIGNED_CONTEXT ( ( #21 ) ) GLOBAL_UNIT_ASSIGNED_CONTEXT ( ( #9, #184, #79 ) ) REPRESENTATION_CONTEXT ( 'NONE', 'WORKASPACE' ) );
#85 = PERSON_AND_ORGANIZATION ( #199, #126 ) ;
#86 = CC_DESIGN_PERSON_AND_ORGANIZATION_ASSIGNMENT ( #32, #77, ( #273 ) ) ;
#87 = PLANE ( 'NONE',  #83 ) ;
#88 = CLOSED_SHELL ( 'NONE', ( #13, #104, #44, #153, #159, #17, #192 ) ) ;
#89 = FACE_BOUND ( 'NONE', #57, .T. ) ;
#90 = CARTESIAN_POINT ( 'NONE',  ( 1.047444401652940007E-13, -3.673940397442059178E-15, 30.00000000000000000 ) ) ;
#91 = APPROVAL ( #259, 'UNSPECIFIED' ) ;
#92 = AXIS2_PLACEMENT_3D ( 'NONE', #248, #127, #209 ) ;
#93 = LOCAL_TIME ( 9, 57, 38.00000000000000000, #166 ) ;
#94 = APPROVAL_ROLE ( '' ) ;
#95 = DIRECTION ( 'NONE',  ( 3.491481338843133355E-15, -1.224646799147353207E-16, 1.000000000000000000 ) ) ;
#96 = PERSON_AND_ORGANIZATION_ROLE ( 'creator' ) ;
#97 = PLANE ( 'NONE',  #255 ) ;
#98 = CARTESIAN_POINT ( 'NONE',  ( 0.0000000000000000000, 0.0000000000000000000, 0.0000000000000000000 ) ) ;
#99 = AXIS2_PLACEMENT_3D ( 'NONE', #249, #151, #227 ) ;
#100 = VERTEX_POINT ( 'NONE', #266 ) ;
#101 = DIRECTION ( 'NONE',  ( 4.275831445896958607E-31, 1.000000000000000000, 1.224646799147353207E-16 ) ) ;
#102 = PERSON_AND_ORGANIZATION ( #199, #126 ) ;
#103 = FACE_BOUND ( 'NONE', #160, .T. ) ;
#104 = ADVANCED_FACE ( 'NONE', ( #258, #25 ), #73, .T. ) ;
#105 = DIRECTION ( 'NONE',  ( 0.0000000000000000000, 0.0000000000000000000, 1.000000000000000000 ) ) ;
#106 = DIRECTION ( 'NONE',  ( 0.0000000000000000000, 1.000000000000000000, 0.0000000000000000000 ) ) ;
#107 = DIRECTION ( 'NONE',  ( -3.491481338843133355E-15, 1.224646799147353207E-16, -1.000000000000000000 ) ) ;
#108 = SECURITY_CLASSIFICATION ( '', '', #162 ) ;
#109 = CARTESIAN_POINT ( 'NONE',  ( 2.199633243471174014E-14, -7.715274834628325378E-16, 6.299999999999999822 ) ) ;
#110 = DIRECTION ( 'NONE',  ( 3.491481338843133355E-15, -1.224646799147353207E-16, 1.000000000000000000 ) ) ;
#111 = CARTESIAN_POINT ( 'NONE',  ( -1.579215137434749286E-31, 5.539141056573190865E-33, -4.523051920300413545E-17 ) ) ;
#112 = AXIS2_PLACEMENT_3D ( 'NONE', #2, #134, #238 ) ;
#113 = CC_DESIGN_PERSON_AND_ORGANIZATION_ASSIGNMENT ( #3, #234, ( #268 ) ) ;
#114 = PRODUCT_DEFINITION_SHAPE ( 'NONE', 'NONE',  #71 ) ;
#115 = PLANE ( 'NONE',  #59 ) ;
#116 = CONICAL_SURFACE ( 'NONE', #161, 0.7209999999999993081, 0.2617993877991429685 ) ;
#117 = AXIS2_PLACEMENT_3D ( 'NONE', #111, #15, #37 ) ;
#118 = MECHANICAL_CONTEXT ( 'NONE', #174, 'mechanical' ) ;
#119 = ORIENTED_EDGE ( 'NONE', *, *, #181, .T. ) ;
#120 = ADVANCED_FACE ( 'NONE', ( #185 ), #115, .F. ) ;
#121 = CARTESIAN_POINT ( 'NONE',  ( 1.745740669421566678E-14, 0.7209999999999991971, 5.000000000000000000 ) ) ;
#122 = ORIENTED_EDGE ( 'NONE', *, *, #233, .F. ) ;
#123 = ORIENTED_EDGE ( 'NONE', *, *, #130, .T. ) ;
#124 = EDGE_LOOP ( 'NONE', ( #243 ) ) ;
#125 = APPROVAL_ROLE ( '' ) ;
#126 = ORGANIZATION ( 'UNSPECIFIED', 'UNSPECIFIED', '' ) ;
#127 = DIRECTION ( 'NONE',  ( -3.491481338843133355E-15, 1.224646799147353207E-16, -1.000000000000000000 ) ) ;
#128 = CARTESIAN_POINT ( 'NONE',  ( 1.745740669421566678E-14, -6.123233995736766282E-16, 5.000000000000000000 ) ) ;
#129 = APPROVAL_PERSON_ORGANIZATION ( #102, #91, #5 ) ;
#130 = EDGE_CURVE ( 'NONE', #171, #171, #149, .T. ) ;
#131 = EDGE_CURVE ( 'NONE', #202, #202, #175, .T. ) ;
#132 = CIRCLE ( 'NONE', #230, 0.7209999999999999742 ) ;
#133 = CALENDAR_DATE ( 2021, 16, 12 ) ;
#134 = DIRECTION ( 'NONE',  ( 3.491481338843133355E-15, -1.224646799147353207E-16, 1.000000000000000000 ) ) ;
#135 = PLANE ( 'NONE',  #112 ) ;
#136 = LOCAL_TIME ( 9, 57, 38.00000000000000000, #228 ) ;
#137 = EDGE_CURVE ( 'NONE', #100, #100, #274, .T. ) ;
#138 = DATE_AND_TIME ( #53, #240 ) ;
#139 = FACE_OUTER_BOUND ( 'NONE', #143, .T. ) ;
#140 = CARTESIAN_POINT ( 'NONE',  ( 1.042207179644675275E-13, 0.7499999999999962252, 29.84999999999999787 ) ) ;
#141 = EDGE_LOOP ( 'NONE', ( #46 ) ) ;
#142 = CARTESIAN_POINT ( 'NONE',  ( 2.199633243471174014E-14, 0.7209999999999991971, 6.299999999999999822 ) ) ;
#143 = EDGE_LOOP ( 'NONE', ( #122 ) ) ;
#144 = AXIS2_PLACEMENT_3D ( 'NONE', #12, #14, #67 ) ;
#145 = APPROVAL_DATE_TIME ( #168, #91 ) ;
#146 = FACE_OUTER_BOUND ( 'NONE', #141, .T. ) ;
#147 = CALENDAR_DATE ( 2021, 16, 12 ) ;
#148 = CYLINDRICAL_SURFACE ( 'NONE', #41, 0.7499999999999984457 ) ;
#149 = CIRCLE ( 'NONE', #52, 0.7499999999999998890 ) ;
#150 = DATE_AND_TIME ( #194, #136 ) ;
#151 = DIRECTION ( 'NONE',  ( -3.491481338843133355E-15, 1.224646799147353207E-16, -1.000000000000000000 ) ) ;
#152 = DIRECTION ( 'NONE',  ( -3.491481338843133355E-15, 1.224646799147353207E-16, -1.000000000000000000 ) ) ;
#153 = ADVANCED_FACE ( 'NONE', ( #89, #250 ), #7, .T. ) ;
#154 = APPROVAL_PERSON_ORGANIZATION ( #276, #281, #94 ) ;
#155 = EDGE_LOOP ( 'NONE', ( #201 ) ) ;
#156 = APPROVAL_DATE_TIME ( #74, #281 ) ;
#157 = DIRECTION ( 'NONE',  ( -3.491481338843133355E-15, 1.224646799147353207E-16, -1.000000000000000000 ) ) ;
#158 = EDGE_LOOP ( 'NONE', ( #262 ) ) ;
#159 = ADVANCED_FACE ( 'NONE', ( #190, #65 ), #148, .T. ) ;
#160 = EDGE_LOOP ( 'NONE', ( #50 ) ) ;
#161 = AXIS2_PLACEMENT_3D ( 'NONE', #271, #110, #191 ) ;
#162 = SECURITY_CLASSIFICATION_LEVEL ( 'unclassified' ) ;
#163 = CARTESIAN_POINT ( 'NONE',  ( 0.0000000000000000000, 0.0000000000000000000, 0.0000000000000000000 ) ) ;
#164 = CARTESIAN_POINT ( 'NONE',  ( 1.745740669421566678E-14, 5.406634016495986331E-33, 5.000000000000000000 ) ) ;
#165 = EDGE_CURVE ( 'NONE', #220, #220, #45, .T. ) ;
#166 = COORDINATED_UNIVERSAL_TIME_OFFSET ( 1, 0, .AHEAD. ) ;
#167 = ORIENTED_EDGE ( 'NONE', *, *, #130, .F. ) ;
#168 = DATE_AND_TIME ( #81, #93 ) ;
#169 = DIRECTION ( 'NONE',  ( -3.491481338843133355E-15, 1.224646799147353207E-16, -1.000000000000000000 ) ) ;
#170 = CC_DESIGN_APPROVAL ( #91, ( #71 ) ) ;
#171 = VERTEX_POINT ( 'NONE', #140 ) ;
#172 = DIRECTION ( 'NONE',  ( -3.491481338843133355E-15, 1.224646799147353207E-16, -1.000000000000000000 ) ) ;
#173 = SHAPE_DEFINITION_REPRESENTATION ( #114, #47 ) ;
#174 = APPLICATION_CONTEXT ( 'configuration controlled 3d designs of mechanical parts and assemblies' ) ;
#175 = CIRCLE ( 'NONE', #277, 0.7209999999999993081 ) ;
#176 = CC_DESIGN_SECURITY_CLASSIFICATION ( #108, ( #268 ) ) ;
#177 = DIRECTION ( 'NONE',  ( -3.491481338843133355E-15, 1.224646799147353207E-16, -1.000000000000000000 ) ) ;
#178 = CARTESIAN_POINT ( 'NONE',  ( 1.745740669421566678E-14, 0.7209999999999991971, 5.000000000000000000 ) ) ;
#179 = CARTESIAN_POINT ( 'NONE',  ( 0.0000000000000000000, 0.0000000000000000000, 0.0000000000000000000 ) ) ;
#180 = DIRECTION ( 'NONE',  ( 4.275831445896958607E-31, 1.000000000000000000, 1.224646799147353207E-16 ) ) ;
#181 = EDGE_CURVE ( 'NONE', #261, #261, #198, .T. ) ;
#182 = VERTEX_POINT ( 'NONE', #142 ) ;
#183 = EDGE_LOOP ( 'NONE', ( #213 ) ) ;
#184 =( NAMED_UNIT ( * ) PLANE_ANGLE_UNIT ( ) SI_UNIT ( $, .RADIAN. ) );
#185 = FACE_OUTER_BOUND ( 'NONE', #279, .T. ) ;
#186 = DIRECTION ( 'NONE',  ( 3.491481338843133355E-15, -1.224646799147353207E-16, 1.000000000000000000 ) ) ;
#187 = AXIS2_PLACEMENT_3D ( 'NONE', #98, #206, #180 ) ;
#188 = CC_DESIGN_APPROVAL ( #281, ( #268 ) ) ;
#189 = DIRECTION ( 'NONE',  ( 4.275831445896958607E-31, 1.000000000000000000, 1.224646799147353207E-16 ) ) ;
#190 = FACE_OUTER_BOUND ( 'NONE', #232, .T. ) ;
#191 = DIRECTION ( 'NONE',  ( -5.342385421323821257E-31, -1.000000000000000000, -1.503747812046470730E-16 ) ) ;
#192 = ADVANCED_FACE ( 'NONE', ( #146 ), #87, .F. ) ;
#193 = AXIS2_PLACEMENT_3D ( 'NONE', #179, #6, #101 ) ;
#194 = CALENDAR_DATE ( 2021, 16, 12 ) ;
#195 = MANIFOLD_SOLID_BREP ( 'Corps-Déplacer/Copier1[1]', #88 ) ;
#196 = PRODUCT_RELATED_PRODUCT_CATEGORY ( 'detail', '', ( #273 ) ) ;
#197 = FACE_OUTER_BOUND ( 'NONE', #78, .T. ) ;
#198 = CIRCLE ( 'NONE', #144, 0.7499999999999971134 ) ;
#199 = PERSON ( 'UNSPECIFIED', 'UNSPECIFIED', 'UNSPECIFIED', ('UNSPECIFIED'), ('UNSPECIFIED'), ('UNSPECIFIED') ) ;
#200 = APPLICATION_PROTOCOL_DEFINITION ( 'international standard', 'config_control_design', 1994, #64 ) ;
#201 = ORIENTED_EDGE ( 'NONE', *, *, #275, .F. ) ;
#202 = VERTEX_POINT ( 'NONE', #218 ) ;
#203 = ORIENTED_EDGE ( 'NONE', *, *, #181, .F. ) ;
#204 = CARTESIAN_POINT ( 'NONE',  ( 1.047444401652940007E-13, -3.673940397442059178E-15, 30.00000000000000000 ) ) ;
#205 = CLOSED_SHELL ( 'NONE', ( #120, #214, #19, #40 ) ) ;
#206 = DIRECTION ( 'NONE',  ( -3.491481338843133355E-15, 1.224646799147353207E-16, -1.000000000000000000 ) ) ;
#207 = VERTEX_POINT ( 'NONE', #242 ) ;
#208 = DIRECTION ( 'NONE',  ( 5.342385421323821257E-31, 1.000000000000000000, 1.503747812046470730E-16 ) ) ;
#209 = DIRECTION ( 'NONE',  ( 0.0000000000000000000, 1.000000000000000000, 0.0000000000000000000 ) ) ;
#210 = DIRECTION ( 'NONE',  ( 4.275831445896958607E-31, 1.000000000000000000, 1.224646799147353454E-16 ) ) ;
#211 = CC_DESIGN_PERSON_AND_ORGANIZATION_ASSIGNMENT ( #20, #51, ( #268 ) ) ;
#212 = DIRECTION ( 'NONE',  ( 0.0000000000000000000, 1.000000000000000000, 0.0000000000000000000 ) ) ;
#213 = ORIENTED_EDGE ( 'NONE', *, *, #251, .T. ) ;
#214 = ADVANCED_FACE ( 'NONE', ( #269, #225 ), #116, .T. ) ;
#215 = CC_DESIGN_DATE_AND_TIME_ASSIGNMENT ( #264, #244, ( #108 ) ) ;
#216 = EDGE_LOOP ( 'NONE', ( #119 ) ) ;
#217 = AXIS2_PLACEMENT_3D ( 'NONE', #68, #186, #247 ) ;
#218 = CARTESIAN_POINT ( 'NONE',  ( 3.140322965808199806E-15, 0.7209999999999991971, 0.8994242446241208500 ) ) ;
#219 = DIRECTION ( 'NONE',  ( 0.0000000000000000000, 1.000000000000000000, 0.0000000000000000000 ) ) ;
#220 = VERTEX_POINT ( 'NONE', #1 ) ;
#221 = ORIENTED_EDGE ( 'NONE', *, *, #131, .T. ) ;
#222 = VERTEX_POINT ( 'NONE', #121 ) ;
#223 = FACE_OUTER_BOUND ( 'NONE', #235, .T. ) ;
#224 = DIRECTION ( 'NONE',  ( 3.491481338843133355E-15, -1.224646799147353207E-16, 1.000000000000000000 ) ) ;
#225 = FACE_OUTER_BOUND ( 'NONE', #27, .T. ) ;
#226 = DIRECTION ( 'NONE',  ( 0.0000000000000000000, 1.000000000000000000, 0.0000000000000000000 ) ) ;
#227 = DIRECTION ( 'NONE',  ( 0.0000000000000000000, 1.000000000000000000, 0.0000000000000000000 ) ) ;
#228 = COORDINATED_UNIVERSAL_TIME_OFFSET ( 1, 0, .AHEAD. ) ;
#229 = ORIENTED_EDGE ( 'NONE', *, *, #275, .T. ) ;
#230 = AXIS2_PLACEMENT_3D ( 'NONE', #109, #39, #226 ) ;
#231 = AXIS2_PLACEMENT_3D ( 'NONE', #163, #105, #237 ) ;
#232 = EDGE_LOOP ( 'NONE', ( #203 ) ) ;
#233 = EDGE_CURVE ( 'NONE', #222, #222, #18, .T. ) ;
#234 = PERSON_AND_ORGANIZATION_ROLE ( 'creator' ) ;
#235 = EDGE_LOOP ( 'NONE', ( #167 ) ) ;
#236 = EDGE_LOOP ( 'NONE', ( #253 ) ) ;
#237 = DIRECTION ( 'NONE',  ( 1.000000000000000000, 0.0000000000000000000, 0.0000000000000000000 ) ) ;
#238 = DIRECTION ( 'NONE',  ( -4.275831445896958607E-31, -1.000000000000000000, -1.224646799147353207E-16 ) ) ;
#239 = CIRCLE ( 'NONE', #42, 0.7209999999999998632 ) ;
#240 = LOCAL_TIME ( 9, 57, 38.00000000000000000, #75 ) ;
#241 = EDGE_LOOP ( 'NONE', ( #43 ) ) ;
#242 = CARTESIAN_POINT ( 'NONE',  ( 4.731839565957901202E-32, 0.4799999999999998712, 1.355252715606880543E-17 ) ) ;
#243 = ORIENTED_EDGE ( 'NONE', *, *, #233, .T. ) ;
#244 = DATE_TIME_ROLE ( 'classification_date' ) ;
#245 = CARTESIAN_POINT ( 'NONE',  ( -7.896075687173746431E-32, 2.769570528286595433E-33, -2.261525960150206773E-17 ) ) ;
#246 = CC_DESIGN_DATE_AND_TIME_ASSIGNMENT ( #138, #280, ( #71 ) ) ;
#247 = DIRECTION ( 'NONE',  ( 0.0000000000000000000, -1.000000000000000000, 0.0000000000000000000 ) ) ;
#248 = CARTESIAN_POINT ( 'NONE',  ( 2.244816336776805305E-14, -7.873755792199909958E-16, 6.429409522551257083 ) ) ;
#249 = CARTESIAN_POINT ( 'NONE',  ( 1.745740669421566678E-14, -6.123233995736766282E-16, 5.000000000000000000 ) ) ;
#250 = FACE_OUTER_BOUND ( 'NONE', #216, .T. ) ;
#251 = EDGE_CURVE ( 'NONE', #182, #182, #132, .T. ) ;
#252 = APPROVAL_PERSON_ORGANIZATION ( #270, #36, #125 ) ;
#253 = ORIENTED_EDGE ( 'NONE', *, *, #251, .F. ) ;
#254 = EDGE_CURVE ( 'NONE', #55, #55, #239, .T. ) ;
#255 = AXIS2_PLACEMENT_3D ( 'NONE', #164, #95, #76 ) ;
#256 = AXIS2_PLACEMENT_3D ( 'NONE', #90, #172, #106 ) ;
#257 = ORIENTED_EDGE ( 'NONE', *, *, #254, .T. ) ;
#258 = FACE_OUTER_BOUND ( 'NONE', #8, .T. ) ;
#259 = APPROVAL_STATUS ( 'not_yet_approved' ) ;
#260 = ORIENTED_EDGE ( 'NONE', *, *, #254, .F. ) ;
#261 = VERTEX_POINT ( 'NONE', #61 ) ;
#262 = ORIENTED_EDGE ( 'NONE', *, *, #165, .T. ) ;
#263 = FACE_OUTER_BOUND ( 'NONE', #236, .T. ) ;
#264 = DATE_AND_TIME ( #147, #70 ) ;
#265 = CC_DESIGN_PERSON_AND_ORGANIZATION_ASSIGNMENT ( #282, #96, ( #71 ) ) ;
#266 = CARTESIAN_POINT ( 'NONE',  ( 1.047444401652940007E-13, 0.5999999999999963141, 30.00000000000000000 ) ) ;
#267 = EDGE_LOOP ( 'NONE', ( #123 ) ) ;
#268 = PRODUCT_DEFINITION_FORMATION_WITH_SPECIFIED_SOURCE ( 'ANY', '', #273, .NOT_KNOWN. ) ;
#269 = FACE_BOUND ( 'NONE', #155, .T. ) ;
#270 = PERSON_AND_ORGANIZATION ( #199, #126 ) ;
#271 = CARTESIAN_POINT ( 'NONE',  ( 3.140322965808199412E-15, -1.101477022254455602E-16, 0.8994242446241207389 ) ) ;
#272 = CONICAL_SURFACE ( 'NONE', #30, 0.6000000000000000888, 0.7853981633974450594 ) ;
#273 = PRODUCT ( '986889', '986889', '', ( #118 ) ) ;
#274 = CIRCLE ( 'NONE', #256, 0.6000000000000000888 ) ;
#275 = EDGE_CURVE ( 'NONE', #207, #207, #278, .T. ) ;
#276 = PERSON_AND_ORGANIZATION ( #199, #126 ) ;
#277 = AXIS2_PLACEMENT_3D ( 'NONE', #33, #152, #208 ) ;
#278 = CIRCLE ( 'NONE', #117, 0.4799999999999998712 ) ;
#279 = EDGE_LOOP ( 'NONE', ( #229 ) ) ;
#280 = DATE_TIME_ROLE ( 'creation_date' ) ;
#281 = APPROVAL ( #48, 'UNSPECIFIED' ) ;
#282 = PERSON_AND_ORGANIZATION ( #199, #126 ) ;
#283 = FACE_OUTER_BOUND ( 'NONE', #124, .T. ) ;
ENDSEC;
END-ISO-10303-21;
