ISO-10303-21;
HEADER;
FILE_DESCRIPTION (( 'STEP AP203' ),
    '1' );
FILE_NAME ('986888.step',
    '2021-12-16T08:57:37',
    ( '' ),
    ( '' ),
    'SwSTEP 2.0',
    'SolidWorks 2019',
    '' );
FILE_SCHEMA (( 'CONFIG_CONTROL_DESIGN' ));
ENDSEC;

DATA;
#1 = VERTEX_POINT ( 'NONE', #172 ) ;
#2 = VERTEX_POINT ( 'NONE', #7 ) ;
#3 = CARTESIAN_POINT ( 'NONE',  ( 2.164718430082742680E-14, -7.592810154713589835E-16, 6.200000000000000178 ) ) ;
#4 = LOCAL_TIME ( 9, 57, 37.00000000000000000, #263 ) ;
#5 = ADVANCED_FACE ( 'NONE', ( #143, #218 ), #112, .T. ) ;
#6 = MANIFOLD_SOLID_BREP ( 'Corps-Déplacer/Copier1[2]', #93 ) ;
#7 = CARTESIAN_POINT ( 'NONE',  ( 2.138211768073756517E-47, 0.4149999999999999800, 0.0000000000000000000 ) ) ;
#8 = APPROVAL_PERSON_ORGANIZATION ( #157, #43, #227 ) ;
#9 = APPROVAL_ROLE ( '' ) ;
#10 = CARTESIAN_POINT ( 'NONE',  ( 2.645168307299019793E-15, -9.278001473761586317E-17, 0.7576063139364992427 ) ) ;
#11 = DIRECTION ( 'NONE',  ( -3.491481338843133355E-15, 1.224646799147353207E-16, -1.000000000000000000 ) ) ;
#12 = CARTESIAN_POINT ( 'NONE',  ( 1.047444401652940007E-13, -3.673940397442059178E-15, 30.00000000000000000 ) ) ;
#13 = EDGE_CURVE ( 'NONE', #2, #2, #137, .T. ) ;
#14 = APPROVAL_DATE_TIME ( #214, #43 ) ;
#15 = ORGANIZATION ( 'UNSPECIFIED', 'UNSPECIFIED', '' ) ;
#16 = CC_DESIGN_PERSON_AND_ORGANIZATION_ASSIGNMENT ( #135, #208, ( #250 ) ) ;
#17 = APPLICATION_PROTOCOL_DEFINITION ( 'international standard', 'config_control_design', 1994, #187 ) ;
#18 = UNCERTAINTY_MEASURE_WITH_UNIT (LENGTH_MEASURE( 1.000000000000000082E-05 ), #69, 'distance_accuracy_value', 'NONE');
#19 = EDGE_LOOP ( 'NONE', ( #129 ) ) ;
#20 = DESIGN_CONTEXT ( 'detailed design', #187, 'design' ) ;
#21 = CARTESIAN_POINT ( 'NONE',  ( 2.164718430082742680E-14, 0.6179999999999993276, 6.200000000000000178 ) ) ;
#22 = ORIENTED_EDGE ( 'NONE', *, *, #244, .F. ) ;
#23 = DIRECTION ( 'NONE',  ( 1.000000000000000000, 0.0000000000000000000, 0.0000000000000000000 ) ) ;
#24 = CARTESIAN_POINT ( 'NONE',  ( 0.0000000000000000000, 0.0000000000000000000, 0.0000000000000000000 ) ) ;
#25 = AXIS2_PLACEMENT_3D ( 'NONE', #12, #181, #224 ) ;
#26 = DIRECTION ( 'NONE',  ( -3.491481338843133355E-15, 1.224646799147353207E-16, -1.000000000000000000 ) ) ;
#27 = AXIS2_PLACEMENT_3D ( 'NONE', #35, #120, #40 ) ;
#28 = CARTESIAN_POINT ( 'NONE',  ( 0.0000000000000000000, 0.0000000000000000000, 0.0000000000000000000 ) ) ;
#29 = APPROVAL_STATUS ( 'not_yet_approved' ) ;
#30 = FACE_OUTER_BOUND ( 'NONE', #283, .T. ) ;
#31 = CALENDAR_DATE ( 2021, 16, 12 ) ;
#32 = CARTESIAN_POINT ( 'NONE',  ( 2.645168307299019793E-15, -9.278001473761586317E-17, 0.7576063139364992427 ) ) ;
#33 = APPLICATION_CONTEXT ( 'configuration controlled 3d designs of mechanical parts and assemblies' ) ;
#34 = DIRECTION ( 'NONE',  ( -3.491481338843133355E-15, 1.224646799147353207E-16, -1.000000000000000000 ) ) ;
#35 = CARTESIAN_POINT ( 'NONE',  ( 1.047444401652940007E-13, 4.499279347985518085E-33, 30.00000000000000000 ) ) ;
#36 = ADVANCED_FACE ( 'NONE', ( #72 ), #38, .F. ) ;
#37 = CONICAL_SURFACE ( 'NONE', #176, 0.7499999999999972244, 0.2617993877991438567 ) ;
#38 = PLANE ( 'NONE',  #52 ) ;
#39 = PERSON_AND_ORGANIZATION ( #246, #15 ) ;
#40 = DIRECTION ( 'NONE',  ( 4.275831445896958607E-31, 1.000000000000000000, 1.224646799147353207E-16 ) ) ;
#41 = EDGE_LOOP ( 'NONE', ( #254 ) ) ;
#42 = CIRCLE ( 'NONE', #205, 0.6179999999999999938 ) ;
#43 = APPROVAL ( #139, 'UNSPECIFIED' ) ;
#44 = LOCAL_TIME ( 9, 57, 37.00000000000000000, #106 ) ;
#45 = EDGE_LOOP ( 'NONE', ( #107 ) ) ;
#46 = CARTESIAN_POINT ( 'NONE',  ( 1.745740669421566678E-14, -6.123233995736766282E-16, 5.000000000000000000 ) ) ;
#47 = EDGE_LOOP ( 'NONE', ( #90 ) ) ;
#48 =( NAMED_UNIT ( * ) SI_UNIT ( $, .STERADIAN. ) SOLID_ANGLE_UNIT ( ) );
#49 = EDGE_LOOP ( 'NONE', ( #238 ) ) ;
#50 = APPROVAL_DATE_TIME ( #242, #83 ) ;
#51 = CIRCLE ( 'NONE', #81, 0.6179999999999994387 ) ;
#52 = AXIS2_PLACEMENT_3D ( 'NONE', #92, #150, #65 ) ;
#53 = VERTEX_POINT ( 'NONE', #149 ) ;
#54 = FACE_OUTER_BOUND ( 'NONE', #221, .T. ) ;
#55 = PLANE ( 'NONE',  #84 ) ;
#56 = PERSON_AND_ORGANIZATION_ROLE ( 'design_supplier' ) ;
#57 = CARTESIAN_POINT ( 'NONE',  ( 1.745740669421566678E-14, 4.634257728425130456E-33, 5.000000000000000000 ) ) ;
#58 = EDGE_CURVE ( 'NONE', #267, #267, #257, .T. ) ;
#59 = DATE_AND_TIME ( #31, #127 ) ;
#60 = FACE_OUTER_BOUND ( 'NONE', #219, .T. ) ;
#61 = FACE_OUTER_BOUND ( 'NONE', #194, .T. ) ;
#62 = CALENDAR_DATE ( 2021, 16, 12 ) ;
#63 = CC_DESIGN_APPROVAL ( #43, ( #131 ) ) ;
#64 = CALENDAR_DATE ( 2021, 16, 12 ) ;
#65 = DIRECTION ( 'NONE',  ( -4.275831445896958607E-31, -1.000000000000000000, -1.224646799147353207E-16 ) ) ;
#66 = CC_DESIGN_DATE_AND_TIME_ASSIGNMENT ( #230, #183, ( #277 ) ) ;
#67 = ADVANCED_FACE ( 'NONE', ( #115, #262 ), #74, .T. ) ;
#68 = PERSON_AND_ORGANIZATION ( #246, #15 ) ;
#69 =( LENGTH_UNIT ( ) NAMED_UNIT ( * ) SI_UNIT ( .MILLI., .METRE. ) );
#70 = EDGE_LOOP ( 'NONE', ( #144 ) ) ;
#71 = DIRECTION ( 'NONE',  ( 0.0000000000000000000, 1.000000000000000000, 0.0000000000000000000 ) ) ;
#72 = FACE_OUTER_BOUND ( 'NONE', #45, .T. ) ;
#73 = DIRECTION ( 'NONE',  ( -3.491481338843133355E-15, 1.224646799147353207E-16, -1.000000000000000000 ) ) ;
#74 = CYLINDRICAL_SURFACE ( 'NONE', #186, 0.6179999999999996607 ) ;
#75 = DIRECTION ( 'NONE',  ( 3.491481338843133355E-15, -1.224646799147353207E-16, 1.000000000000000000 ) ) ;
#76 = CARTESIAN_POINT ( 'NONE',  ( 1.745740669421566678E-14, -6.123233995736766282E-16, 5.000000000000000000 ) ) ;
#77 = AXIS2_PLACEMENT_3D ( 'NONE', #197, #156, #71 ) ;
#78 = PERSON_AND_ORGANIZATION_ROLE ( 'creator' ) ;
#79 = COORDINATED_UNIVERSAL_TIME_OFFSET ( 1, 0, .AHEAD. ) ;
#80 = CARTESIAN_POINT ( 'NONE',  ( 2.164718430082742365E-14, -8.673617379884035472E-16, 6.199999999999999289 ) ) ;
#81 = AXIS2_PLACEMENT_3D ( 'NONE', #10, #34, #133 ) ;
#82 = AXIS2_PLACEMENT_3D ( 'NONE', #195, #73, #94 ) ;
#83 = APPROVAL ( #29, 'UNSPECIFIED' ) ;
#84 = AXIS2_PLACEMENT_3D ( 'NONE', #57, #140, #136 ) ;
#85 = CIRCLE ( 'NONE', #82, 0.7499999999999972244 ) ;
#86 = LOCAL_TIME ( 9, 57, 37.00000000000000000, #184 ) ;
#87 = CALENDAR_DATE ( 2021, 16, 12 ) ;
#88 = EDGE_CURVE ( 'NONE', #97, #97, #42, .T. ) ;
#89 = ORIENTED_EDGE ( 'NONE', *, *, #117, .F. ) ;
#90 = ORIENTED_EDGE ( 'NONE', *, *, #161, .T. ) ;
#91 = DIRECTION ( 'NONE',  ( 0.0000000000000000000, -1.000000000000000000, 0.0000000000000000000 ) ) ;
#92 = CARTESIAN_POINT ( 'NONE',  ( -8.872350250236188145E-32, 3.112001549023353989E-33, -2.541142108230757825E-17 ) ) ;
#93 = CLOSED_SHELL ( 'NONE', ( #36, #185, #67, #118 ) ) ;
#94 = DIRECTION ( 'NONE',  ( 0.0000000000000000000, 1.000000000000000000, 0.0000000000000000000 ) ) ;
#95 = DIRECTION ( 'NONE',  ( -3.491481338843133355E-15, 1.224646799147353207E-16, -1.000000000000000000 ) ) ;
#96 = EDGE_LOOP ( 'NONE', ( #130 ) ) ;
#97 = VERTEX_POINT ( 'NONE', #128 ) ;
#98 = DIRECTION ( 'NONE',  ( 0.0000000000000000000, 1.000000000000000000, 0.0000000000000000000 ) ) ;
#99 = ADVANCED_FACE ( 'NONE', ( #54 ), #132, .F. ) ;
#100 = DIRECTION ( 'NONE',  ( 3.491481338843133355E-15, -1.224646799147353207E-16, 1.000000000000000000 ) ) ;
#101 = DATE_TIME_ROLE ( 'classification_date' ) ;
#102 = DIRECTION ( 'NONE',  ( -3.491481338843133355E-15, 1.224646799147353207E-16, -1.000000000000000000 ) ) ;
#103 = CARTESIAN_POINT ( 'NONE',  ( 1.042207179644675275E-13, -3.655570695454848748E-15, 29.84999999999999787 ) ) ;
#104 = AXIS2_PLACEMENT_3D ( 'NONE', #24, #196, #165 ) ;
#105 = PERSON_AND_ORGANIZATION ( #246, #15 ) ;
#106 = COORDINATED_UNIVERSAL_TIME_OFFSET ( 1, 0, .AHEAD. ) ;
#107 = ORIENTED_EDGE ( 'NONE', *, *, #13, .T. ) ;
#108 = PRODUCT_DEFINITION_SHAPE ( 'NONE', 'NONE',  #277 ) ;
#109 = AXIS2_PLACEMENT_3D ( 'NONE', #28, #151, #202 ) ;
#110 = VERTEX_POINT ( 'NONE', #261 ) ;
#111 = DIRECTION ( 'NONE',  ( 0.0000000000000000000, 1.000000000000000000, 0.0000000000000000000 ) ) ;
#112 = CYLINDRICAL_SURFACE ( 'NONE', #104, 0.6180000000000001048 ) ;
#113 = DIRECTION ( 'NONE',  ( 4.275831445896958607E-31, 1.000000000000000000, 1.224646799147353207E-16 ) ) ;
#114 = AXIS2_PLACEMENT_3D ( 'NONE', #225, #102, #98 ) ;
#115 = FACE_OUTER_BOUND ( 'NONE', #216, .T. ) ;
#116 = COORDINATED_UNIVERSAL_TIME_OFFSET ( 1, 0, .AHEAD. ) ;
#117 = EDGE_CURVE ( 'NONE', #170, #170, #51, .T. ) ;
#118 = ADVANCED_FACE ( 'NONE', ( #61 ), #55, .T. ) ;
#119 = DIRECTION ( 'NONE',  ( 0.0000000000000000000, 1.000000000000000000, 0.0000000000000000000 ) ) ;
#120 = DIRECTION ( 'NONE',  ( -3.491481338843133355E-15, 1.224646799147353207E-16, -1.000000000000000000 ) ) ;
#121 = CIRCLE ( 'NONE', #77, 0.6350370868554650050 ) ;
#122 = PERSON_AND_ORGANIZATION_ROLE ( 'design_owner' ) ;
#123 = EDGE_LOOP ( 'NONE', ( #173 ) ) ;
#124 = FACE_OUTER_BOUND ( 'NONE', #47, .T. ) ;
#125 = ORIENTED_EDGE ( 'NONE', *, *, #161, .F. ) ;
#126 = CLOSED_SHELL ( 'NONE', ( #99, #5, #192, #235, #266, #179, #207 ) ) ;
#127 = LOCAL_TIME ( 9, 57, 37.00000000000000000, #79 ) ;
#128 = CARTESIAN_POINT ( 'NONE',  ( 1.745740669421566678E-14, 0.6179999999999993276, 5.000000000000000000 ) ) ;
#129 = ORIENTED_EDGE ( 'NONE', *, *, #58, .T. ) ;
#130 = ORIENTED_EDGE ( 'NONE', *, *, #244, .T. ) ;
#131 = PRODUCT_DEFINITION_FORMATION_WITH_SPECIFIED_SOURCE ( 'ANY', '', #272, .NOT_KNOWN. ) ;
#132 = PLANE ( 'NONE',  #158 ) ;
#133 = DIRECTION ( 'NONE',  ( 6.232782991544458571E-31, 1.000000000000000000, 1.754372447387549309E-16 ) ) ;
#134 = CALENDAR_DATE ( 2021, 16, 12 ) ;
#135 = PERSON_AND_ORGANIZATION ( #246, #15 ) ;
#136 = DIRECTION ( 'NONE',  ( -4.275831445896958607E-31, -1.000000000000000000, -1.224646799147353207E-16 ) ) ;
#137 = CIRCLE ( 'NONE', #247, 0.4149999999999999800 ) ;
#138 = AXIS2_PLACEMENT_3D ( 'NONE', #148, #281, #23 ) ;
#139 = APPROVAL_STATUS ( 'not_yet_approved' ) ;
#140 = DIRECTION ( 'NONE',  ( 3.491481338843133355E-15, -1.224646799147353207E-16, 1.000000000000000000 ) ) ;
#141 = PERSON_AND_ORGANIZATION_ROLE ( 'creator' ) ;
#142 = CONICAL_SURFACE ( 'NONE', #25, 0.6000000000000000888, 0.7853981633974450594 ) ;
#143 = FACE_OUTER_BOUND ( 'NONE', #123, .T. ) ;
#144 = ORIENTED_EDGE ( 'NONE', *, *, #13, .F. ) ;
#145 = FACE_BOUND ( 'NONE', #220, .T. ) ;
#146 = ORIENTED_EDGE ( 'NONE', *, *, #117, .T. ) ;
#147 = APPROVAL_PERSON_ORGANIZATION ( #68, #83, #9 ) ;
#148 = CARTESIAN_POINT ( 'NONE',  ( 0.0000000000000000000, 0.0000000000000000000, 0.0000000000000000000 ) ) ;
#149 = CARTESIAN_POINT ( 'NONE',  ( 2.209901523388373971E-14, 0.6350370868554642279, 6.329409522551256551 ) ) ;
#150 = DIRECTION ( 'NONE',  ( 3.491481338843133355E-15, -1.224646799147353207E-16, 1.000000000000000000 ) ) ;
#151 = DIRECTION ( 'NONE',  ( -3.491481338843133355E-15, 1.224646799147353207E-16, -1.000000000000000000 ) ) ;
#152 = CARTESIAN_POINT ( 'NONE',  ( 0.0000000000000000000, 0.0000000000000000000, 0.0000000000000000000 ) ) ;
#153 = CC_DESIGN_PERSON_AND_ORGANIZATION_ASSIGNMENT ( #269, #78, ( #277 ) ) ;
#154 = CARTESIAN_POINT ( 'NONE',  ( 1.745740669421566678E-14, 0.6179999999999993276, 5.000000000000000000 ) ) ;
#155 = DIRECTION ( 'NONE',  ( 0.0000000000000000000, 1.000000000000000000, 0.0000000000000000000 ) ) ;
#156 = DIRECTION ( 'NONE',  ( -3.491481338843133355E-15, 1.224646799147353207E-16, -1.000000000000000000 ) ) ;
#157 = PERSON_AND_ORGANIZATION ( #246, #15 ) ;
#158 = AXIS2_PLACEMENT_3D ( 'NONE', #223, #203, #175 ) ;
#159 = APPROVAL_STATUS ( 'not_yet_approved' ) ;
#160 = CC_DESIGN_APPROVAL ( #83, ( #277 ) ) ;
#161 = EDGE_CURVE ( 'NONE', #110, #110, #199, .T. ) ;
#162 = EDGE_CURVE ( 'NONE', #168, #168, #233, .T. ) ;
#163 = APPROVAL_PERSON_ORGANIZATION ( #180, #167, #215 ) ;
#164 = APPROVAL_DATE_TIME ( #276, #167 ) ;
#165 = DIRECTION ( 'NONE',  ( 4.275831445896958607E-31, 1.000000000000000000, 1.224646799147352961E-16 ) ) ;
#166 = ORIENTED_EDGE ( 'NONE', *, *, #88, .F. ) ;
#167 = APPROVAL ( #159, 'UNSPECIFIED' ) ;
#168 = VERTEX_POINT ( 'NONE', #282 ) ;
#169 = CARTESIAN_POINT ( 'NONE',  ( -1.774470050047237629E-31, 6.224003098046707978E-33, -5.082284216461515650E-17 ) ) ;
#170 = VERTEX_POINT ( 'NONE', #255 ) ;
#171 = DIRECTION ( 'NONE',  ( 0.0000000000000000000, 1.000000000000000000, 0.0000000000000000000 ) ) ;
#172 = CARTESIAN_POINT ( 'NONE',  ( 2.359702633912850181E-14, 0.7499999999999963363, 6.758456955392788679 ) ) ;
#173 = ORIENTED_EDGE ( 'NONE', *, *, #260, .F. ) ;
#174 = CARTESIAN_POINT ( 'NONE',  ( 2.359702633912850181E-14, -8.276722677596944724E-16, 6.758456955392788679 ) ) ;
#175 = DIRECTION ( 'NONE',  ( -4.275831445896958607E-31, -1.000000000000000000, -1.224646799147353207E-16 ) ) ;
#176 = AXIS2_PLACEMENT_3D ( 'NONE', #174, #75, #91 ) ;
#177 = FACE_OUTER_BOUND ( 'NONE', #198, .T. ) ;
#178 = FACE_OUTER_BOUND ( 'NONE', #188, .T. ) ;
#179 = ADVANCED_FACE ( 'NONE', ( #177, #210 ), #142, .T. ) ;
#180 = PERSON_AND_ORGANIZATION ( #246, #15 ) ;
#181 = DIRECTION ( 'NONE',  ( -3.491481338843133355E-15, 1.224646799147353207E-16, -1.000000000000000000 ) ) ;
#182 = AXIS2_PLACEMENT_3D ( 'NONE', #32, #100, #209 ) ;
#183 = DATE_TIME_ROLE ( 'creation_date' ) ;
#184 = COORDINATED_UNIVERSAL_TIME_OFFSET ( 1, 0, .AHEAD. ) ;
#185 = ADVANCED_FACE ( 'NONE', ( #268, #30 ), #271, .T. ) ;
#186 = AXIS2_PLACEMENT_3D ( 'NONE', #152, #26, #201 ) ;
#187 = APPLICATION_CONTEXT ( 'configuration controlled 3d designs of mechanical parts and assemblies' ) ;
#188 = EDGE_LOOP ( 'NONE', ( #265 ) ) ;
#189 = CIRCLE ( 'NONE', #231, 0.6179999999999999938 ) ;
#190 = MANIFOLD_SOLID_BREP ( 'Corps-Déplacer/Copier1[1]', #126 ) ;
#191 = CC_DESIGN_DATE_AND_TIME_ASSIGNMENT ( #59, #101, ( #250 ) ) ;
#192 = ADVANCED_FACE ( 'NONE', ( #178, #270 ), #226, .F. ) ;
#193 = FACE_OUTER_BOUND ( 'NONE', #41, .T. ) ;
#194 = EDGE_LOOP ( 'NONE', ( #166 ) ) ;
#195 = CARTESIAN_POINT ( 'NONE',  ( 2.359702633912850181E-14, -8.276722677596944724E-16, 6.758456955392788679 ) ) ;
#196 = DIRECTION ( 'NONE',  ( -3.491481338843133355E-15, 1.224646799147353207E-16, -1.000000000000000000 ) ) ;
#197 = CARTESIAN_POINT ( 'NONE',  ( 2.209901523388373971E-14, -7.751291112285174415E-16, 6.329409522551256551 ) ) ;
#198 = EDGE_LOOP ( 'NONE', ( #125 ) ) ;
#199 = CIRCLE ( 'NONE', #274, 0.7499999999999998890 ) ;
#200 = PRODUCT_RELATED_PRODUCT_CATEGORY ( 'detail', '', ( #272 ) ) ;
#201 = DIRECTION ( 'NONE',  ( 4.275831445896957731E-31, 1.000000000000000000, 1.224646799147353207E-16 ) ) ;
#202 = DIRECTION ( 'NONE',  ( 4.275831445896958607E-31, 1.000000000000000000, 1.224646799147353454E-16 ) ) ;
#203 = DIRECTION ( 'NONE',  ( 3.491481338843133355E-15, -1.224646799147353207E-16, 1.000000000000000000 ) ) ;
#204 = DIRECTION ( 'NONE',  ( -3.491481338843133355E-15, 1.224646799147353207E-16, -1.000000000000000000 ) ) ;
#205 = AXIS2_PLACEMENT_3D ( 'NONE', #76, #243, #155 ) ;
#206 = CC_DESIGN_APPROVAL ( #167, ( #250 ) ) ;
#207 = ADVANCED_FACE ( 'NONE', ( #60 ), #228, .F. ) ;
#208 = PERSON_AND_ORGANIZATION_ROLE ( 'classification_officer' ) ;
#209 = DIRECTION ( 'NONE',  ( -6.232782991544458571E-31, -1.000000000000000000, -1.754372447387549309E-16 ) ) ;
#210 = FACE_BOUND ( 'NONE', #280, .T. ) ;
#211 = PERSON_AND_ORGANIZATION ( #246, #15 ) ;
#212 = SECURITY_CLASSIFICATION_LEVEL ( 'unclassified' ) ;
#213 = ADVANCED_BREP_SHAPE_REPRESENTATION ( '986888', ( #190, #6, #138 ), #275 ) ;
#214 = DATE_AND_TIME ( #64, #86 ) ;
#215 = APPROVAL_ROLE ( '' ) ;
#216 = EDGE_LOOP ( 'NONE', ( #89 ) ) ;
#217 = CYLINDRICAL_SURFACE ( 'NONE', #109, 0.7499999999999984457 ) ;
#218 = FACE_OUTER_BOUND ( 'NONE', #19, .T. ) ;
#219 = EDGE_LOOP ( 'NONE', ( #241 ) ) ;
#220 = EDGE_LOOP ( 'NONE', ( #22 ) ) ;
#221 = EDGE_LOOP ( 'NONE', ( #259 ) ) ;
#222 = FACE_OUTER_BOUND ( 'NONE', #49, .T. ) ;
#223 = CARTESIAN_POINT ( 'NONE',  ( 1.745740669421566678E-14, 4.634257728425130456E-33, 5.000000000000000000 ) ) ;
#224 = DIRECTION ( 'NONE',  ( 0.0000000000000000000, 1.000000000000000000, 0.0000000000000000000 ) ) ;
#225 = CARTESIAN_POINT ( 'NONE',  ( 1.047444401652940007E-13, -3.673940397442059178E-15, 30.00000000000000000 ) ) ;
#226 = TOROIDAL_SURFACE ( 'NONE', #279, 1.118000000000000327, 0.5000000000000000000 ) ;
#227 = APPROVAL_ROLE ( '' ) ;
#228 = PLANE ( 'NONE',  #27 ) ;
#229 = EDGE_CURVE ( 'NONE', #1, #1, #85, .T. ) ;
#230 = DATE_AND_TIME ( #62, #253 ) ;
#231 = AXIS2_PLACEMENT_3D ( 'NONE', #46, #264, #111 ) ;
#232 = MECHANICAL_CONTEXT ( 'NONE', #33, 'mechanical' ) ;
#233 = CIRCLE ( 'NONE', #114, 0.6000000000000000888 ) ;
#234 = DIRECTION ( 'NONE',  ( -3.491481338843133355E-15, 1.224646799147353207E-16, -1.000000000000000000 ) ) ;
#235 = ADVANCED_FACE ( 'NONE', ( #145, #222 ), #37, .T. ) ;
#236 = ORIENTED_EDGE ( 'NONE', *, *, #162, .T. ) ;
#237 =( NAMED_UNIT ( * ) PLANE_ANGLE_UNIT ( ) SI_UNIT ( $, .RADIAN. ) );
#238 = ORIENTED_EDGE ( 'NONE', *, *, #229, .T. ) ;
#239 = CC_DESIGN_SECURITY_CLASSIFICATION ( #250, ( #131 ) ) ;
#240 = EDGE_LOOP ( 'NONE', ( #256 ) ) ;
#241 = ORIENTED_EDGE ( 'NONE', *, *, #162, .F. ) ;
#242 = DATE_AND_TIME ( #134, #4 ) ;
#243 = DIRECTION ( 'NONE',  ( -3.491481338843133355E-15, 1.224646799147353207E-16, -1.000000000000000000 ) ) ;
#244 = EDGE_CURVE ( 'NONE', #53, #53, #121, .T. ) ;
#245 = CC_DESIGN_PERSON_AND_ORGANIZATION_ASSIGNMENT ( #39, #122, ( #272 ) ) ;
#246 = PERSON ( 'UNSPECIFIED', 'UNSPECIFIED', 'UNSPECIFIED', ('UNSPECIFIED'), ('UNSPECIFIED'), ('UNSPECIFIED') ) ;
#247 = AXIS2_PLACEMENT_3D ( 'NONE', #169, #234, #113 ) ;
#248 = CC_DESIGN_PERSON_AND_ORGANIZATION_ASSIGNMENT ( #211, #56, ( #131 ) ) ;
#249 = DIRECTION ( 'NONE',  ( 4.275831445896958607E-31, 1.000000000000000000, 1.224646799147353207E-16 ) ) ;
#250 = SECURITY_CLASSIFICATION ( '', '', #212 ) ;
#251 = SHAPE_DEFINITION_REPRESENTATION ( #108, #213 ) ;
#252 = AXIS2_PLACEMENT_3D ( 'NONE', #3, #95, #171 ) ;
#253 = LOCAL_TIME ( 9, 57, 37.00000000000000000, #116 ) ;
#254 = ORIENTED_EDGE ( 'NONE', *, *, #229, .F. ) ;
#255 = CARTESIAN_POINT ( 'NONE',  ( 2.645168307299020188E-15, 0.6179999999999993276, 0.7576063139364993537 ) ) ;
#256 = ORIENTED_EDGE ( 'NONE', *, *, #88, .T. ) ;
#257 = CIRCLE ( 'NONE', #252, 0.6180000000000001048 ) ;
#258 = VERTEX_POINT ( 'NONE', #154 ) ;
#259 = ORIENTED_EDGE ( 'NONE', *, *, #260, .T. ) ;
#260 = EDGE_CURVE ( 'NONE', #258, #258, #189, .T. ) ;
#261 = CARTESIAN_POINT ( 'NONE',  ( 1.042207179644675275E-13, 0.7499999999999962252, 29.84999999999999787 ) ) ;
#262 = FACE_OUTER_BOUND ( 'NONE', #240, .T. ) ;
#263 = COORDINATED_UNIVERSAL_TIME_OFFSET ( 1, 0, .AHEAD. ) ;
#264 = DIRECTION ( 'NONE',  ( -3.491481338843133355E-15, 1.224646799147353207E-16, -1.000000000000000000 ) ) ;
#265 = ORIENTED_EDGE ( 'NONE', *, *, #58, .F. ) ;
#266 = ADVANCED_FACE ( 'NONE', ( #193, #124 ), #217, .T. ) ;
#267 = VERTEX_POINT ( 'NONE', #21 ) ;
#268 = FACE_BOUND ( 'NONE', #70, .T. ) ;
#269 = PERSON_AND_ORGANIZATION ( #246, #15 ) ;
#270 = FACE_OUTER_BOUND ( 'NONE', #96, .T. ) ;
#271 = CONICAL_SURFACE ( 'NONE', #182, 0.6179999999999994387, 0.2617993877991430240 ) ;
#272 = PRODUCT ( '986888', '986888', '', ( #232 ) ) ;
#273 = CC_DESIGN_PERSON_AND_ORGANIZATION_ASSIGNMENT ( #105, #141, ( #131 ) ) ;
#274 = AXIS2_PLACEMENT_3D ( 'NONE', #103, #204, #119 ) ;
#275 =( GEOMETRIC_REPRESENTATION_CONTEXT ( 3 ) GLOBAL_UNCERTAINTY_ASSIGNED_CONTEXT ( ( #18 ) ) GLOBAL_UNIT_ASSIGNED_CONTEXT ( ( #69, #237, #48 ) ) REPRESENTATION_CONTEXT ( 'NONE', 'WORKASPACE' ) );
#276 = DATE_AND_TIME ( #87, #44 ) ;
#277 = PRODUCT_DEFINITION ( 'UNKNOWN', '', #131, #20 ) ;
#278 = APPLICATION_PROTOCOL_DEFINITION ( 'international standard', 'config_control_design', 1994, #33 ) ;
#279 = AXIS2_PLACEMENT_3D ( 'NONE', #80, #11, #249 ) ;
#280 = EDGE_LOOP ( 'NONE', ( #236 ) ) ;
#281 = DIRECTION ( 'NONE',  ( 0.0000000000000000000, 0.0000000000000000000, 1.000000000000000000 ) ) ;
#282 = CARTESIAN_POINT ( 'NONE',  ( 1.047444401652940007E-13, 0.5999999999999963141, 30.00000000000000000 ) ) ;
#283 = EDGE_LOOP ( 'NONE', ( #146 ) ) ;
ENDSEC;
END-ISO-10303-21;
