ISO-10303-21;
HEADER;
FILE_DESCRIPTION (( 'STEP AP203' ),
    '1' );
FILE_NAME ('986887.step',
    '2021-12-16T08:57:37',
    ( '' ),
    ( '' ),
    'SwSTEP 2.0',
    'SolidWorks 2019',
    '' );
FILE_SCHEMA (( 'CONFIG_CONTROL_DESIGN' ));
ENDSEC;

DATA;
#1 = MANIFOLD_SOLID_BREP ( 'Corps-Déplacer/Copier1[1]', #70 ) ;
#2 = EDGE_CURVE ( 'NONE', #102, #102, #80, .T. ) ;
#3 = APPROVAL_DATE_TIME ( #282, #234 ) ;
#4 = AXIS2_PLACEMENT_3D ( 'NONE', #123, #209, #275 ) ;
#5 = CARTESIAN_POINT ( 'NONE',  ( 1.042207179644675275E-13, 0.7499999999999962252, 29.84999999999999787 ) ) ;
#6 = ORIENTED_EDGE ( 'NONE', *, *, #64, .T. ) ;
#7 = ADVANCED_FACE ( 'NONE', ( #116 ), #187, .F. ) ;
#8 = EDGE_LOOP ( 'NONE', ( #27 ) ) ;
#9 = PRODUCT_RELATED_PRODUCT_CATEGORY ( 'detail', '', ( #108 ) ) ;
#10 = EDGE_LOOP ( 'NONE', ( #55 ) ) ;
#11 = FACE_OUTER_BOUND ( 'NONE', #72, .T. ) ;
#12 = DIRECTION ( 'NONE',  ( 0.0000000000000000000, 1.000000000000000000, 0.0000000000000000000 ) ) ;
#13 = DIRECTION ( 'NONE',  ( -3.491481338843133355E-15, 1.224646799147353207E-16, -1.000000000000000000 ) ) ;
#14 = VERTEX_POINT ( 'NONE', #198 ) ;
#15 = CARTESIAN_POINT ( 'NONE',  ( 1.047444401652940007E-13, -3.673940397442059178E-15, 30.00000000000000000 ) ) ;
#16 = DIRECTION ( 'NONE',  ( 0.0000000000000000000, 1.000000000000000000, 0.0000000000000000000 ) ) ;
#17 = COORDINATED_UNIVERSAL_TIME_OFFSET ( 1, 0, .AHEAD. ) ;
#18 = DIRECTION ( 'NONE',  ( -3.491481338843133355E-15, 1.224646799147353207E-16, -1.000000000000000000 ) ) ;
#19 = CIRCLE ( 'NONE', #56, 0.5179999999999994609 ) ;
#20 = CIRCLE ( 'NONE', #262, 0.5179999999999999050 ) ;
#21 = CALENDAR_DATE ( 2021, 16, 12 ) ;
#22 = APPROVAL_DATE_TIME ( #90, #264 ) ;
#23 =( NAMED_UNIT ( * ) SI_UNIT ( $, .STERADIAN. ) SOLID_ANGLE_UNIT ( ) );
#24 = ORGANIZATION ( 'UNSPECIFIED', 'UNSPECIFIED', '' ) ;
#25 = DIRECTION ( 'NONE',  ( 1.000000000000000000, 0.0000000000000000000, 0.0000000000000000000 ) ) ;
#26 = ORIENTED_EDGE ( 'NONE', *, *, #2, .T. ) ;
#27 = ORIENTED_EDGE ( 'NONE', *, *, #64, .F. ) ;
#28 = FACE_OUTER_BOUND ( 'NONE', #51, .T. ) ;
#29 = ADVANCED_FACE ( 'NONE', ( #207 ), #184, .T. ) ;
#30 = EDGE_LOOP ( 'NONE', ( #74 ) ) ;
#31 = CARTESIAN_POINT ( 'NONE',  ( 1.047444401652940007E-13, -3.673940397442059178E-15, 30.00000000000000000 ) ) ;
#32 = DIRECTION ( 'NONE',  ( 4.275831445896958607E-31, 1.000000000000000000, 1.224646799147353207E-16 ) ) ;
#33 = FACE_OUTER_BOUND ( 'NONE', #202, .T. ) ;
#34 = ADVANCED_FACE ( 'NONE', ( #52, #271 ), #98, .T. ) ;
#35 = FACE_BOUND ( 'NONE', #185, .T. ) ;
#36 = FACE_OUTER_BOUND ( 'NONE', #120, .T. ) ;
#37 = AXIS2_PLACEMENT_3D ( 'NONE', #61, #83, #189 ) ;
#38 = CARTESIAN_POINT ( 'NONE',  ( 2.645168307299021371E-15, -9.278001473761591247E-17, 0.7576063139364996868 ) ) ;
#39 = CC_DESIGN_PERSON_AND_ORGANIZATION_ASSIGNMENT ( #177, #283, ( #227 ) ) ;
#40 = APPLICATION_PROTOCOL_DEFINITION ( 'international standard', 'config_control_design', 1994, #230 ) ;
#41 = CALENDAR_DATE ( 2021, 16, 12 ) ;
#42 = APPROVAL_ROLE ( '' ) ;
#43 = APPROVAL_STATUS ( 'not_yet_approved' ) ;
#44 = LOCAL_TIME ( 9, 57, 37.00000000000000000, #46 ) ;
#45 = APPROVAL_ROLE ( '' ) ;
#46 = COORDINATED_UNIVERSAL_TIME_OFFSET ( 1, 0, .AHEAD. ) ;
#47 = CALENDAR_DATE ( 2021, 16, 12 ) ;
#48 = CIRCLE ( 'NONE', #242, 0.5179999999999999050 ) ;
#49 =( GEOMETRIC_REPRESENTATION_CONTEXT ( 3 ) GLOBAL_UNCERTAINTY_ASSIGNED_CONTEXT ( ( #133 ) ) GLOBAL_UNIT_ASSIGNED_CONTEXT ( ( #131, #67, #23 ) ) REPRESENTATION_CONTEXT ( 'NONE', 'WORKASPACE' ) );
#50 = PERSON_AND_ORGANIZATION_ROLE ( 'classification_officer' ) ;
#51 = EDGE_LOOP ( 'NONE', ( #226 ) ) ;
#52 = FACE_OUTER_BOUND ( 'NONE', #183, .T. ) ;
#53 = ADVANCED_FACE ( 'NONE', ( #28, #11 ), #138, .F. ) ;
#54 = LOCAL_TIME ( 9, 57, 37.00000000000000000, #17 ) ;
#55 = ORIENTED_EDGE ( 'NONE', *, *, #142, .F. ) ;
#56 = AXIS2_PLACEMENT_3D ( 'NONE', #254, #13, #85 ) ;
#57 = FACE_OUTER_BOUND ( 'NONE', #246, .T. ) ;
#58 = DIRECTION ( 'NONE',  ( -3.491481338843133355E-15, 1.224646799147353207E-16, -1.000000000000000000 ) ) ;
#59 = DIRECTION ( 'NONE',  ( 0.0000000000000000000, -1.000000000000000000, 0.0000000000000000000 ) ) ;
#60 = CC_DESIGN_PERSON_AND_ORGANIZATION_ASSIGNMENT ( #243, #50, ( #195 ) ) ;
#61 = CARTESIAN_POINT ( 'NONE',  ( 0.0000000000000000000, 0.0000000000000000000, 0.0000000000000000000 ) ) ;
#62 = CARTESIAN_POINT ( 'NONE',  ( 0.0000000000000000000, 0.0000000000000000000, 0.0000000000000000000 ) ) ;
#63 = DATE_TIME_ROLE ( 'creation_date' ) ;
#64 = EDGE_CURVE ( 'NONE', #124, #124, #48, .T. ) ;
#65 = CONICAL_SURFACE ( 'NONE', #82, 0.5179999999999994609, 0.2617993877991430240 ) ;
#66 = VERTEX_POINT ( 'NONE', #217 ) ;
#67 =( NAMED_UNIT ( * ) PLANE_ANGLE_UNIT ( ) SI_UNIT ( $, .RADIAN. ) );
#68 = EDGE_CURVE ( 'NONE', #14, #14, #149, .T. ) ;
#69 = CALENDAR_DATE ( 2021, 16, 12 ) ;
#70 = CLOSED_SHELL ( 'NONE', ( #7, #157, #53, #146, #125, #34, #101 ) ) ;
#71 = DIRECTION ( 'NONE',  ( -4.275831445896958607E-31, -1.000000000000000000, -1.224646799147353207E-16 ) ) ;
#72 = EDGE_LOOP ( 'NONE', ( #26 ) ) ;
#73 = CC_DESIGN_PERSON_AND_ORGANIZATION_ASSIGNMENT ( #109, #200, ( #108 ) ) ;
#74 = ORIENTED_EDGE ( 'NONE', *, *, #118, .F. ) ;
#75 = AXIS2_PLACEMENT_3D ( 'NONE', #206, #168, #203 ) ;
#76 = CC_DESIGN_APPROVAL ( #234, ( #195 ) ) ;
#77 = ORIENTED_EDGE ( 'NONE', *, *, #84, .F. ) ;
#78 = EDGE_LOOP ( 'NONE', ( #141 ) ) ;
#79 = CYLINDRICAL_SURFACE ( 'NONE', #37, 0.7499999999999984457 ) ;
#80 = CIRCLE ( 'NONE', #222, 0.5350370868554651382 ) ;
#81 = FACE_OUTER_BOUND ( 'NONE', #94, .T. ) ;
#82 = AXIS2_PLACEMENT_3D ( 'NONE', #38, #130, #214 ) ;
#83 = DIRECTION ( 'NONE',  ( -3.491481338843133355E-15, 1.224646799147353207E-16, -1.000000000000000000 ) ) ;
#84 = EDGE_CURVE ( 'NONE', #265, #265, #19, .T. ) ;
#85 = DIRECTION ( 'NONE',  ( 7.436022951302076705E-31, 1.000000000000000000, 2.093054387037655536E-16 ) ) ;
#86 = FACE_OUTER_BOUND ( 'NONE', #95, .T. ) ;
#87 = AXIS2_PLACEMENT_3D ( 'NONE', #97, #186, #273 ) ;
#88 = SHAPE_DEFINITION_REPRESENTATION ( #238, #211 ) ;
#89 = PERSON_AND_ORGANIZATION ( #182, #24 ) ;
#90 = DATE_AND_TIME ( #179, #150 ) ;
#91 = EDGE_CURVE ( 'NONE', #114, #114, #218, .T. ) ;
#92 = VERTEX_POINT ( 'NONE', #162 ) ;
#93 = CARTESIAN_POINT ( 'NONE',  ( 0.0000000000000000000, 0.0000000000000000000, 0.0000000000000000000 ) ) ;
#94 = EDGE_LOOP ( 'NONE', ( #164 ) ) ;
#95 = EDGE_LOOP ( 'NONE', ( #77 ) ) ;
#96 = DIRECTION ( 'NONE',  ( -3.491481338843133355E-15, 1.224646799147353207E-16, -1.000000000000000000 ) ) ;
#97 = CARTESIAN_POINT ( 'NONE',  ( 1.815570296198429345E-14, -6.505213034913026604E-16, 5.200000000000000178 ) ) ;
#98 = CONICAL_SURFACE ( 'NONE', #256, 0.6000000000000000888, 0.7853981633974450594 ) ;
#99 = AXIS2_PLACEMENT_3D ( 'NONE', #62, #232, #32 ) ;
#100 = ORIENTED_EDGE ( 'NONE', *, *, #260, .T. ) ;
#101 = ADVANCED_FACE ( 'NONE', ( #169 ), #253, .F. ) ;
#102 = VERTEX_POINT ( 'NONE', #188 ) ;
#103 = CARTESIAN_POINT ( 'NONE',  ( 1.047444401652940007E-13, 4.499279347985518085E-33, 30.00000000000000000 ) ) ;
#104 = DIRECTION ( 'NONE',  ( -3.491481338843133355E-15, 1.224646799147353207E-16, -1.000000000000000000 ) ) ;
#105 = APPROVAL_PERSON_ORGANIZATION ( #158, #215, #42 ) ;
#106 = DIRECTION ( 'NONE',  ( -3.491481338843133355E-15, 1.224646799147353207E-16, -1.000000000000000000 ) ) ;
#107 = FACE_BOUND ( 'NONE', #10, .T. ) ;
#108 = PRODUCT ( '986887', '986887', '', ( #239 ) ) ;
#109 = PERSON_AND_ORGANIZATION ( #182, #24 ) ;
#110 = CLOSED_SHELL ( 'NONE', ( #122, #172, #193, #29 ) ) ;
#111 = DATE_AND_TIME ( #21, #144 ) ;
#112 = CC_DESIGN_PERSON_AND_ORGANIZATION_ASSIGNMENT ( #261, #159, ( #227 ) ) ;
#113 = LOCAL_TIME ( 9, 57, 37.00000000000000000, #140 ) ;
#114 = VERTEX_POINT ( 'NONE', #181 ) ;
#115 = EDGE_LOOP ( 'NONE', ( #245 ) ) ;
#116 = FACE_OUTER_BOUND ( 'NONE', #229, .T. ) ;
#117 = AXIS2_PLACEMENT_3D ( 'NONE', #103, #106, #191 ) ;
#118 = EDGE_CURVE ( 'NONE', #66, #66, #20, .T. ) ;
#119 = DIRECTION ( 'NONE',  ( -3.491481338843133355E-15, 1.224646799147353207E-16, -1.000000000000000000 ) ) ;
#120 = EDGE_LOOP ( 'NONE', ( #100 ) ) ;
#121 = CARTESIAN_POINT ( 'NONE',  ( 1.860753389504060636E-14, -6.526644313137820962E-16, 5.329409522551256551 ) ) ;
#122 = ADVANCED_FACE ( 'NONE', ( #235 ), #233, .F. ) ;
#123 = CARTESIAN_POINT ( 'NONE',  ( 1.042207179644675275E-13, -3.655570695454848748E-15, 29.84999999999999787 ) ) ;
#124 = VERTEX_POINT ( 'NONE', #210 ) ;
#125 = ADVANCED_FACE ( 'NONE', ( #81, #36 ), #79, .T. ) ;
#126 = DIRECTION ( 'NONE',  ( 3.491481338843133355E-15, -1.224646799147353207E-16, 1.000000000000000000 ) ) ;
#127 = AXIS2_PLACEMENT_3D ( 'NONE', #148, #248, #71 ) ;
#128 = FACE_OUTER_BOUND ( 'NONE', #30, .T. ) ;
#129 = AXIS2_PLACEMENT_3D ( 'NONE', #155, #18, #173 ) ;
#130 = DIRECTION ( 'NONE',  ( 3.491481338843133355E-15, -1.224646799147353207E-16, 1.000000000000000000 ) ) ;
#131 =( LENGTH_UNIT ( ) NAMED_UNIT ( * ) SI_UNIT ( .MILLI., .METRE. ) );
#132 = PRODUCT_DEFINITION ( 'UNKNOWN', '', #227, #228 ) ;
#133 = UNCERTAINTY_MEASURE_WITH_UNIT (LENGTH_MEASURE( 1.000000000000000082E-05 ), #131, 'distance_accuracy_value', 'NONE');
#134 = COORDINATED_UNIVERSAL_TIME_OFFSET ( 1, 0, .AHEAD. ) ;
#135 = VERTEX_POINT ( 'NONE', #268 ) ;
#136 = DIRECTION ( 'NONE',  ( 0.0000000000000000000, 0.0000000000000000000, 1.000000000000000000 ) ) ;
#137 = DATE_AND_TIME ( #47, #44 ) ;
#138 = TOROIDAL_SURFACE ( 'NONE', #87, 1.018000000000000016, 0.4999999999999998890 ) ;
#139 = APPROVAL_PERSON_ORGANIZATION ( #154, #234, #281 ) ;
#140 = COORDINATED_UNIVERSAL_TIME_OFFSET ( 1, 0, .AHEAD. ) ;
#141 = ORIENTED_EDGE ( 'NONE', *, *, #91, .F. ) ;
#142 = EDGE_CURVE ( 'NONE', #135, #135, #219, .T. ) ;
#143 = ORIENTED_EDGE ( 'NONE', *, *, #260, .F. ) ;
#144 = LOCAL_TIME ( 9, 57, 37.00000000000000000, #134 ) ;
#145 = DIRECTION ( 'NONE',  ( -3.491481338843133355E-15, 1.224646799147353207E-16, -1.000000000000000000 ) ) ;
#146 = ADVANCED_FACE ( 'NONE', ( #35, #57 ), #257, .T. ) ;
#147 = ORIENTED_EDGE ( 'NONE', *, *, #2, .F. ) ;
#148 = CARTESIAN_POINT ( 'NONE',  ( 1.396592535537253342E-14, 3.884377837094203021E-33, 4.000000000000000000 ) ) ;
#149 = CIRCLE ( 'NONE', #160, 0.7499999999999971134 ) ;
#150 = LOCAL_TIME ( 9, 57, 37.00000000000000000, #176 ) ;
#151 = FACE_OUTER_BOUND ( 'NONE', #166, .T. ) ;
#152 = DIRECTION ( 'NONE',  ( -3.491481338843133355E-15, 1.224646799147353207E-16, -1.000000000000000000 ) ) ;
#153 = CARTESIAN_POINT ( 'NONE',  ( 2.140858357530952439E-14, -7.509120286024057395E-16, 6.131662036149688078 ) ) ;
#154 = PERSON_AND_ORGANIZATION ( #182, #24 ) ;
#155 = CARTESIAN_POINT ( 'NONE',  ( -1.346886905457542031E-31, 4.724243315384851054E-33, -3.857637417314162689E-17 ) ) ;
#156 = CIRCLE ( 'NONE', #161, 0.5180000000000000160 ) ;
#157 = ADVANCED_FACE ( 'NONE', ( #128, #33 ), #250, .T. ) ;
#158 = PERSON_AND_ORGANIZATION ( #182, #24 ) ;
#159 = PERSON_AND_ORGANIZATION_ROLE ( 'design_supplier' ) ;
#160 = AXIS2_PLACEMENT_3D ( 'NONE', #236, #152, #16 ) ;
#161 = AXIS2_PLACEMENT_3D ( 'NONE', #216, #104, #194 ) ;
#162 = CARTESIAN_POINT ( 'NONE',  ( 1.815570296198429345E-14, 0.5179999999999993499, 5.200000000000000178 ) ) ;
#163 = DATE_AND_TIME ( #69, #113 ) ;
#164 = ORIENTED_EDGE ( 'NONE', *, *, #68, .F. ) ;
#165 = EDGE_LOOP ( 'NONE', ( #231 ) ) ;
#166 = EDGE_LOOP ( 'NONE', ( #205 ) ) ;
#167 = DIRECTION ( 'NONE',  ( 0.0000000000000000000, 1.000000000000000000, 0.0000000000000000000 ) ) ;
#168 = DIRECTION ( 'NONE',  ( 3.491481338843133355E-15, -1.224646799147353207E-16, 1.000000000000000000 ) ) ;
#169 = FACE_OUTER_BOUND ( 'NONE', #78, .T. ) ;
#170 = AXIS2_PLACEMENT_3D ( 'NONE', #93, #136, #25 ) ;
#171 = DIRECTION ( 'NONE',  ( 0.0000000000000000000, 1.000000000000000000, 0.0000000000000000000 ) ) ;
#172 = ADVANCED_FACE ( 'NONE', ( #107, #151 ), #65, .T. ) ;
#173 = DIRECTION ( 'NONE',  ( 4.275831445896958607E-31, 1.000000000000000000, 1.224646799147353454E-16 ) ) ;
#174 = CARTESIAN_POINT ( 'NONE',  ( -6.734434527287710156E-32, 2.362121657692425527E-33, -1.928818708657081344E-17 ) ) ;
#175 = FACE_OUTER_BOUND ( 'NONE', #274, .T. ) ;
#176 = COORDINATED_UNIVERSAL_TIME_OFFSET ( 1, 0, .AHEAD. ) ;
#177 = PERSON_AND_ORGANIZATION ( #182, #24 ) ;
#178 = EDGE_CURVE ( 'NONE', #92, #92, #156, .T. ) ;
#179 = CALENDAR_DATE ( 2021, 16, 12 ) ;
#180 = CC_DESIGN_APPROVAL ( #215, ( #227 ) ) ;
#181 = CARTESIAN_POINT ( 'NONE',  ( 1.047444401652940007E-13, 0.5999999999999963141, 30.00000000000000000 ) ) ;
#182 = PERSON ( 'UNSPECIFIED', 'UNSPECIFIED', 'UNSPECIFIED', ('UNSPECIFIED'), ('UNSPECIFIED'), ('UNSPECIFIED') ) ;
#183 = EDGE_LOOP ( 'NONE', ( #143 ) ) ;
#184 = PLANE ( 'NONE',  #127 ) ;
#185 = EDGE_LOOP ( 'NONE', ( #147 ) ) ;
#186 = DIRECTION ( 'NONE',  ( -3.491481338843133355E-15, 1.224646799147353207E-16, -1.000000000000000000 ) ) ;
#187 = PLANE ( 'NONE',  #75 ) ;
#188 = CARTESIAN_POINT ( 'NONE',  ( 1.860753389504060636E-14, 0.5350370868554644721, 5.329409522551256551 ) ) ;
#189 = DIRECTION ( 'NONE',  ( 4.275831445896958607E-31, 1.000000000000000000, 1.224646799147353454E-16 ) ) ;
#190 = DIRECTION ( 'NONE',  ( 3.491481338843133355E-15, -1.224646799147353207E-16, 1.000000000000000000 ) ) ;
#191 = DIRECTION ( 'NONE',  ( 4.275831445896958607E-31, 1.000000000000000000, 1.224646799147353207E-16 ) ) ;
#192 = MANIFOLD_SOLID_BREP ( 'Corps-Déplacer/Copier1[2]', #110 ) ;
#193 = ADVANCED_FACE ( 'NONE', ( #86, #175 ), #258, .T. ) ;
#194 = DIRECTION ( 'NONE',  ( 0.0000000000000000000, 1.000000000000000000, 0.0000000000000000000 ) ) ;
#195 = SECURITY_CLASSIFICATION ( '', '', #224 ) ;
#196 = APPLICATION_PROTOCOL_DEFINITION ( 'international standard', 'config_control_design', 1994, #199 ) ;
#197 = APPROVAL_DATE_TIME ( #111, #215 ) ;
#198 = CARTESIAN_POINT ( 'NONE',  ( 2.140858357530952439E-14, 0.7499999999999963363, 6.131662036149688078 ) ) ;
#199 = APPLICATION_CONTEXT ( 'configuration controlled 3d designs of mechanical parts and assemblies' ) ;
#200 = PERSON_AND_ORGANIZATION_ROLE ( 'design_owner' ) ;
#201 = CC_DESIGN_DATE_AND_TIME_ASSIGNMENT ( #137, #63, ( #132 ) ) ;
#202 = EDGE_LOOP ( 'NONE', ( #272 ) ) ;
#203 = DIRECTION ( 'NONE',  ( -4.275831445896958607E-31, -1.000000000000000000, -1.224646799147353207E-16 ) ) ;
#204 = CC_DESIGN_PERSON_AND_ORGANIZATION_ASSIGNMENT ( #263, #241, ( #132 ) ) ;
#205 = ORIENTED_EDGE ( 'NONE', *, *, #84, .T. ) ;
#206 = CARTESIAN_POINT ( 'NONE',  ( 1.396592535537253342E-14, 3.884377837094203021E-33, 4.000000000000000000 ) ) ;
#207 = FACE_OUTER_BOUND ( 'NONE', #8, .T. ) ;
#208 = CC_DESIGN_APPROVAL ( #264, ( #132 ) ) ;
#209 = DIRECTION ( 'NONE',  ( -3.491481338843133355E-15, 1.224646799147353207E-16, -1.000000000000000000 ) ) ;
#210 = CARTESIAN_POINT ( 'NONE',  ( 1.396592535537253342E-14, 0.5179999999999993499, 4.000000000000000000 ) ) ;
#211 = ADVANCED_BREP_SHAPE_REPRESENTATION ( '986887', ( #1, #192, #170 ), #49 ) ;
#212 = CARTESIAN_POINT ( 'NONE',  ( 0.0000000000000000000, 0.0000000000000000000, 0.0000000000000000000 ) ) ;
#213 = CC_DESIGN_SECURITY_CLASSIFICATION ( #195, ( #227 ) ) ;
#214 = DIRECTION ( 'NONE',  ( -7.436022951302076705E-31, -1.000000000000000000, -2.093054387037655536E-16 ) ) ;
#215 = APPROVAL ( #240, 'UNSPECIFIED' ) ;
#216 = CARTESIAN_POINT ( 'NONE',  ( 1.815570296198429345E-14, -6.368163355566236381E-16, 5.200000000000000178 ) ) ;
#217 = CARTESIAN_POINT ( 'NONE',  ( 1.396592535537253342E-14, 0.5179999999999993499, 4.000000000000000000 ) ) ;
#218 = CIRCLE ( 'NONE', #251, 0.6000000000000000888 ) ;
#219 = CIRCLE ( 'NONE', #129, 0.3149999999999999467 ) ;
#220 = CARTESIAN_POINT ( 'NONE',  ( 2.645168307299021765E-15, 0.5179999999999993499, 0.7576063139364997978 ) ) ;
#221 = APPROVAL_STATUS ( 'not_yet_approved' ) ;
#222 = AXIS2_PLACEMENT_3D ( 'NONE', #121, #96, #225 ) ;
#223 = AXIS2_PLACEMENT_3D ( 'NONE', #153, #126, #59 ) ;
#224 = SECURITY_CLASSIFICATION_LEVEL ( 'unclassified' ) ;
#225 = DIRECTION ( 'NONE',  ( 0.0000000000000000000, 1.000000000000000000, 0.0000000000000000000 ) ) ;
#226 = ORIENTED_EDGE ( 'NONE', *, *, #178, .F. ) ;
#227 = PRODUCT_DEFINITION_FORMATION_WITH_SPECIFIED_SOURCE ( 'ANY', '', #108, .NOT_KNOWN. ) ;
#228 = DESIGN_CONTEXT ( 'detailed design', #230, 'design' ) ;
#229 = EDGE_LOOP ( 'NONE', ( #244 ) ) ;
#230 = APPLICATION_CONTEXT ( 'configuration controlled 3d designs of mechanical parts and assemblies' ) ;
#231 = ORIENTED_EDGE ( 'NONE', *, *, #142, .T. ) ;
#232 = DIRECTION ( 'NONE',  ( -3.491481338843133355E-15, 1.224646799147353207E-16, -1.000000000000000000 ) ) ;
#233 = PLANE ( 'NONE',  #247 ) ;
#234 = APPROVAL ( #43, 'UNSPECIFIED' ) ;
#235 = FACE_OUTER_BOUND ( 'NONE', #165, .T. ) ;
#236 = CARTESIAN_POINT ( 'NONE',  ( 2.140858357530952439E-14, -7.509120286024057395E-16, 6.131662036149688078 ) ) ;
#237 = DIRECTION ( 'NONE',  ( 4.275831445896958607E-31, 1.000000000000000000, 1.224646799147352961E-16 ) ) ;
#238 = PRODUCT_DEFINITION_SHAPE ( 'NONE', 'NONE',  #132 ) ;
#239 = MECHANICAL_CONTEXT ( 'NONE', #199, 'mechanical' ) ;
#240 = APPROVAL_STATUS ( 'not_yet_approved' ) ;
#241 = PERSON_AND_ORGANIZATION_ROLE ( 'creator' ) ;
#242 = AXIS2_PLACEMENT_3D ( 'NONE', #270, #145, #167 ) ;
#243 = PERSON_AND_ORGANIZATION ( #182, #24 ) ;
#244 = ORIENTED_EDGE ( 'NONE', *, *, #118, .T. ) ;
#245 = ORIENTED_EDGE ( 'NONE', *, *, #91, .T. ) ;
#246 = EDGE_LOOP ( 'NONE', ( #249 ) ) ;
#247 = AXIS2_PLACEMENT_3D ( 'NONE', #174, #190, #280 ) ;
#248 = DIRECTION ( 'NONE',  ( 3.491481338843133355E-15, -1.224646799147353207E-16, 1.000000000000000000 ) ) ;
#249 = ORIENTED_EDGE ( 'NONE', *, *, #68, .T. ) ;
#250 = CYLINDRICAL_SURFACE ( 'NONE', #277, 0.5180000000000000160 ) ;
#251 = AXIS2_PLACEMENT_3D ( 'NONE', #15, #279, #171 ) ;
#252 = CIRCLE ( 'NONE', #4, 0.7499999999999998890 ) ;
#253 = PLANE ( 'NONE',  #117 ) ;
#254 = CARTESIAN_POINT ( 'NONE',  ( 2.645168307299021371E-15, -9.278001473761591247E-17, 0.7576063139364996868 ) ) ;
#255 = DIRECTION ( 'NONE',  ( 0.0000000000000000000, 1.000000000000000000, 0.0000000000000000000 ) ) ;
#256 = AXIS2_PLACEMENT_3D ( 'NONE', #31, #119, #12 ) ;
#257 = CONICAL_SURFACE ( 'NONE', #223, 0.7499999999999971134, 0.2617993877991425800 ) ;
#258 = CYLINDRICAL_SURFACE ( 'NONE', #99, 0.5179999999999996829 ) ;
#259 = VERTEX_POINT ( 'NONE', #5 ) ;
#260 = EDGE_CURVE ( 'NONE', #259, #259, #252, .T. ) ;
#261 = PERSON_AND_ORGANIZATION ( #182, #24 ) ;
#262 = AXIS2_PLACEMENT_3D ( 'NONE', #278, #58, #255 ) ;
#263 = PERSON_AND_ORGANIZATION ( #182, #24 ) ;
#264 = APPROVAL ( #221, 'UNSPECIFIED' ) ;
#265 = VERTEX_POINT ( 'NONE', #220 ) ;
#266 = DATE_TIME_ROLE ( 'classification_date' ) ;
#267 = CC_DESIGN_DATE_AND_TIME_ASSIGNMENT ( #163, #266, ( #195 ) ) ;
#268 = CARTESIAN_POINT ( 'NONE',  ( -2.138211768073756517E-47, 0.3149999999999999467, 0.0000000000000000000 ) ) ;
#269 = APPROVAL_PERSON_ORGANIZATION ( #89, #264, #45 ) ;
#270 = CARTESIAN_POINT ( 'NONE',  ( 1.396592535537253342E-14, -4.898587196589412829E-16, 4.000000000000000000 ) ) ;
#271 = FACE_BOUND ( 'NONE', #115, .T. ) ;
#272 = ORIENTED_EDGE ( 'NONE', *, *, #178, .T. ) ;
#273 = DIRECTION ( 'NONE',  ( 4.275831445896958607E-31, 1.000000000000000000, 1.224646799147353207E-16 ) ) ;
#274 = EDGE_LOOP ( 'NONE', ( #6 ) ) ;
#275 = DIRECTION ( 'NONE',  ( 0.0000000000000000000, 1.000000000000000000, 0.0000000000000000000 ) ) ;
#276 = DIRECTION ( 'NONE',  ( -3.491481338843133355E-15, 1.224646799147353207E-16, -1.000000000000000000 ) ) ;
#277 = AXIS2_PLACEMENT_3D ( 'NONE', #212, #276, #237 ) ;
#278 = CARTESIAN_POINT ( 'NONE',  ( 1.396592535537253342E-14, -4.898587196589412829E-16, 4.000000000000000000 ) ) ;
#279 = DIRECTION ( 'NONE',  ( -3.491481338843133355E-15, 1.224646799147353207E-16, -1.000000000000000000 ) ) ;
#280 = DIRECTION ( 'NONE',  ( -4.275831445896958607E-31, -1.000000000000000000, -1.224646799147353207E-16 ) ) ;
#281 = APPROVAL_ROLE ( '' ) ;
#282 = DATE_AND_TIME ( #41, #54 ) ;
#283 = PERSON_AND_ORGANIZATION_ROLE ( 'creator' ) ;
ENDSEC;
END-ISO-10303-21;
