ISO-10303-21;
HEADER;
FILE_DESCRIPTION (( 'STEP AP203' ),
    '1' );
FILE_NAME ('986886.step',
    '2021-12-16T08:57:36',
    ( '' ),
    ( '' ),
    'SwSTEP 2.0',
    'SolidWorks 2019',
    '' );
FILE_SCHEMA (( 'CONFIG_CONTROL_DESIGN' ));
ENDSEC;

DATA;
#1 = EDGE_LOOP ( 'NONE', ( #61 ) ) ;
#2 = CARTESIAN_POINT ( 'NONE',  ( 2.358499820793708848E-15, -8.272503777097774794E-17, 0.6755011961699826095 ) ) ;
#3 = APPROVAL ( #52, 'UNSPECIFIED' ) ;
#4 = ORIENTED_EDGE ( 'NONE', *, *, #146, .F. ) ;
#5 = PRODUCT_DEFINITION_FORMATION_WITH_SPECIFIED_SOURCE ( 'ANY', '', #156, .NOT_KNOWN. ) ;
#6 = CARTESIAN_POINT ( 'NONE',  ( 1.047444401652940007E-13, -3.673940397442059178E-15, 30.00000000000000000 ) ) ;
#7 = APPLICATION_CONTEXT ( 'configuration controlled 3d designs of mechanical parts and assemblies' ) ;
#8 = EDGE_CURVE ( 'NONE', #262, #262, #231, .T. ) ;
#9 = CARTESIAN_POINT ( 'NONE',  ( 1.396592535537253342E-14, -4.898587196589412829E-16, 4.000000000000000000 ) ) ;
#10 = DIRECTION ( 'NONE',  ( -3.491481338843133355E-15, 1.224646799147353207E-16, -1.000000000000000000 ) ) ;
#11 = FACE_BOUND ( 'NONE', #199, .T. ) ;
#12 = APPROVAL_STATUS ( 'not_yet_approved' ) ;
#13 = COORDINATED_UNIVERSAL_TIME_OFFSET ( 1, 0, .AHEAD. ) ;
#14 = CC_DESIGN_PERSON_AND_ORGANIZATION_ASSIGNMENT ( #78, #201, ( #5 ) ) ;
#15 = VERTEX_POINT ( 'NONE', #89 ) ;
#16 = EDGE_LOOP ( 'NONE', ( #281 ) ) ;
#17 = PERSON_AND_ORGANIZATION_ROLE ( 'creator' ) ;
#18 = APPROVAL_STATUS ( 'not_yet_approved' ) ;
#19 = ORIENTED_EDGE ( 'NONE', *, *, #235, .T. ) ;
#20 = DIRECTION ( 'NONE',  ( -4.275831445896958607E-31, -1.000000000000000000, -1.224646799147353207E-16 ) ) ;
#21 = CIRCLE ( 'NONE', #250, 0.7499999999999998890 ) ;
#22 = FACE_OUTER_BOUND ( 'NONE', #16, .T. ) ;
#23 = FACE_OUTER_BOUND ( 'NONE', #186, .T. ) ;
#24 = CARTESIAN_POINT ( 'NONE',  ( 1.815570296198429345E-14, -6.368163355566236381E-16, 5.200000000000000178 ) ) ;
#25 = AXIS2_PLACEMENT_3D ( 'NONE', #100, #167, #101 ) ;
#26 = PRODUCT_RELATED_PRODUCT_CATEGORY ( 'detail', '', ( #156 ) ) ;
#27 = CARTESIAN_POINT ( 'NONE',  ( 1.860753389504060636E-14, -6.526644313137820962E-16, 5.329409522551256551 ) ) ;
#28 = FACE_OUTER_BOUND ( 'NONE', #276, .T. ) ;
#29 = SECURITY_CLASSIFICATION ( '', '', #242 ) ;
#30 = DIRECTION ( 'NONE',  ( 0.0000000000000000000, 1.000000000000000000, 0.0000000000000000000 ) ) ;
#31 = APPROVAL_DATE_TIME ( #103, #49 ) ;
#32 = ORIENTED_EDGE ( 'NONE', *, *, #235, .F. ) ;
#33 = AXIS2_PLACEMENT_3D ( 'NONE', #73, #271, #247 ) ;
#34 = ADVANCED_BREP_SHAPE_REPRESENTATION ( '986886', ( #249, #163, #265 ), #190 ) ;
#35 = CARTESIAN_POINT ( 'NONE',  ( 1.042207179644675275E-13, 0.7499999999999962252, 29.84999999999999787 ) ) ;
#36 = DATE_AND_TIME ( #132, #228 ) ;
#37 = VERTEX_POINT ( 'NONE', #35 ) ;
#38 = ADVANCED_FACE ( 'NONE', ( #139, #206 ), #115, .T. ) ;
#39 = CONICAL_SURFACE ( 'NONE', #214, 0.6000000000000000888, 0.7853981633974450594 ) ;
#40 = LOCAL_TIME ( 9, 57, 36.00000000000000000, #102 ) ;
#41 = EDGE_LOOP ( 'NONE', ( #237 ) ) ;
#42 = ADVANCED_FACE ( 'NONE', ( #245, #269 ), #53, .T. ) ;
#43 = EDGE_LOOP ( 'NONE', ( #87 ) ) ;
#44 = CARTESIAN_POINT ( 'NONE',  ( 1.396592535537253342E-14, -4.898587196589412829E-16, 4.000000000000000000 ) ) ;
#45 = CARTESIAN_POINT ( 'NONE',  ( 1.396592535537253342E-14, 3.494440293602119660E-33, 4.000000000000000000 ) ) ;
#46 = ADVANCED_FACE ( 'NONE', ( #164, #137 ), #118, .F. ) ;
#47 = CLOSED_SHELL ( 'NONE', ( #202, #42, #109, #68 ) ) ;
#48 = CYLINDRICAL_SURFACE ( 'NONE', #275, 0.7499999999999984457 ) ;
#49 = APPROVAL ( #18, 'UNSPECIFIED' ) ;
#50 = CARTESIAN_POINT ( 'NONE',  ( 1.042207179644675275E-13, -3.655570695454848748E-15, 29.84999999999999787 ) ) ;
#51 = DIRECTION ( 'NONE',  ( -3.491481338843133355E-15, 1.224646799147353207E-16, -1.000000000000000000 ) ) ;
#52 = APPROVAL_STATUS ( 'not_yet_approved' ) ;
#53 = CONICAL_SURFACE ( 'NONE', #77, 0.4659999999999995257, 0.2617993877991429685 ) ;
#54 = CC_DESIGN_SECURITY_CLASSIFICATION ( #29, ( #5 ) ) ;
#55 = PERSON_AND_ORGANIZATION ( #216, #129 ) ;
#56 = CALENDAR_DATE ( 2021, 16, 12 ) ;
#57 = ORIENTED_EDGE ( 'NONE', *, *, #8, .F. ) ;
#58 = EDGE_LOOP ( 'NONE', ( #57 ) ) ;
#59 = PERSON_AND_ORGANIZATION_ROLE ( 'design_owner' ) ;
#60 = APPROVAL_PERSON_ORGANIZATION ( #149, #49, #200 ) ;
#61 = ORIENTED_EDGE ( 'NONE', *, *, #130, .F. ) ;
#62 = EDGE_CURVE ( 'NONE', #220, #220, #143, .T. ) ;
#63 =( NAMED_UNIT ( * ) SI_UNIT ( $, .STERADIAN. ) SOLID_ANGLE_UNIT ( ) );
#64 = PRODUCT_DEFINITION_SHAPE ( 'NONE', 'NONE',  #121 ) ;
#65 = PERSON_AND_ORGANIZATION_ROLE ( 'classification_officer' ) ;
#66 = CLOSED_SHELL ( 'NONE', ( #261, #96, #46, #38, #213, #187, #197 ) ) ;
#67 = CARTESIAN_POINT ( 'NONE',  ( 0.0000000000000000000, 0.0000000000000000000, 0.0000000000000000000 ) ) ;
#68 = ADVANCED_FACE ( 'NONE', ( #22 ), #91, .T. ) ;
#69 = EDGE_LOOP ( 'NONE', ( #259 ) ) ;
#70 = DESIGN_CONTEXT ( 'detailed design', #7, 'design' ) ;
#71 = DIRECTION ( 'NONE',  ( -3.491481338843133355E-15, 1.224646799147353207E-16, -1.000000000000000000 ) ) ;
#72 = DIRECTION ( 'NONE',  ( 3.491481338843133355E-15, -1.224646799147353207E-16, 1.000000000000000000 ) ) ;
#73 = CARTESIAN_POINT ( 'NONE',  ( 2.208616363432207904E-14, -7.746783377962777177E-16, 6.325728678143273775 ) ) ;
#74 = CARTESIAN_POINT ( 'NONE',  ( 0.0000000000000000000, 0.0000000000000000000, 0.0000000000000000000 ) ) ;
#75 = AXIS2_PLACEMENT_3D ( 'NONE', #207, #116, #266 ) ;
#76 = FACE_OUTER_BOUND ( 'NONE', #82, .T. ) ;
#77 = AXIS2_PLACEMENT_3D ( 'NONE', #162, #244, #212 ) ;
#78 = PERSON_AND_ORGANIZATION ( #216, #129 ) ;
#79 = CC_DESIGN_PERSON_AND_ORGANIZATION_ASSIGNMENT ( #111, #17, ( #5 ) ) ;
#80 = VERTEX_POINT ( 'NONE', #198 ) ;
#81 = EDGE_LOOP ( 'NONE', ( #32 ) ) ;
#82 = EDGE_LOOP ( 'NONE', ( #178 ) ) ;
#83 = APPROVAL_DATE_TIME ( #173, #273 ) ;
#84 = CARTESIAN_POINT ( 'NONE',  ( 1.815570296198429345E-14, 0.4659999999999994147, 5.200000000000000178 ) ) ;
#85 = ORIENTED_EDGE ( 'NONE', *, *, #62, .F. ) ;
#86 = VERTEX_POINT ( 'NONE', #238 ) ;
#87 = ORIENTED_EDGE ( 'NONE', *, *, #168, .T. ) ;
#88 = CALENDAR_DATE ( 2021, 16, 12 ) ;
#89 = CARTESIAN_POINT ( 'NONE',  ( 1.396592535537253342E-14, 0.4659999999999994147, 4.000000000000000000 ) ) ;
#90 = AXIS2_PLACEMENT_3D ( 'NONE', #141, #215, #234 ) ;
#91 = PLANE ( 'NONE',  #208 ) ;
#92 = DIRECTION ( 'NONE',  ( -3.491481338843133355E-15, 1.224646799147353207E-16, -1.000000000000000000 ) ) ;
#93 = CC_DESIGN_PERSON_AND_ORGANIZATION_ASSIGNMENT ( #55, #65, ( #29 ) ) ;
#94 = CIRCLE ( 'NONE', #239, 0.4660000000000000253 ) ;
#95 = DIRECTION ( 'NONE',  ( 0.0000000000000000000, 1.000000000000000000, 0.0000000000000000000 ) ) ;
#96 = ADVANCED_FACE ( 'NONE', ( #184, #166 ), #113, .T. ) ;
#97 = DIRECTION ( 'NONE',  ( -3.491481338843133355E-15, 1.224646799147353207E-16, -1.000000000000000000 ) ) ;
#98 = DIRECTION ( 'NONE',  ( 4.275831445896958607E-31, 1.000000000000000000, 1.224646799147353207E-16 ) ) ;
#99 = PERSON_AND_ORGANIZATION ( #216, #129 ) ;
#100 = CARTESIAN_POINT ( 'NONE',  ( -8.458979593382116867E-32, 2.967010640395009028E-33, -2.422748046588418117E-17 ) ) ;
#101 = DIRECTION ( 'NONE',  ( -4.275831445896958607E-31, -1.000000000000000000, -1.224646799147353207E-16 ) ) ;
#102 = COORDINATED_UNIVERSAL_TIME_OFFSET ( 1, 0, .AHEAD. ) ;
#103 = DATE_AND_TIME ( #154, #209 ) ;
#104 = AXIS2_PLACEMENT_3D ( 'NONE', #183, #227, #229 ) ;
#105 = CALENDAR_DATE ( 2021, 16, 12 ) ;
#106 = CARTESIAN_POINT ( 'NONE',  ( 2.358499820793709242E-15, 0.4659999999999994147, 0.6755011961699827205 ) ) ;
#107 = EDGE_LOOP ( 'NONE', ( #175 ) ) ;
#108 = APPROVAL_ROLE ( '' ) ;
#109 = ADVANCED_FACE ( 'NONE', ( #23, #117 ), #283, .T. ) ;
#110 = CARTESIAN_POINT ( 'NONE',  ( 1.047444401652940007E-13, 0.5999999999999963141, 30.00000000000000000 ) ) ;
#111 = PERSON_AND_ORGANIZATION ( #216, #129 ) ;
#112 = CC_DESIGN_APPROVAL ( #3, ( #5 ) ) ;
#113 = CYLINDRICAL_SURFACE ( 'NONE', #248, 0.4659999999999999698 ) ;
#114 = CC_DESIGN_PERSON_AND_ORGANIZATION_ASSIGNMENT ( #131, #59, ( #156 ) ) ;
#115 = CONICAL_SURFACE ( 'NONE', #75, 0.7499999999999971134, 0.2617993877991426910 ) ;
#116 = DIRECTION ( 'NONE',  ( 3.491481338843133355E-15, -1.224646799147353207E-16, 1.000000000000000000 ) ) ;
#117 = FACE_OUTER_BOUND ( 'NONE', #43, .T. ) ;
#118 = TOROIDAL_SURFACE ( 'NONE', #104, 0.9660000000000001918, 0.5000000000000000000 ) ;
#119 = FACE_OUTER_BOUND ( 'NONE', #41, .T. ) ;
#120 = CC_DESIGN_APPROVAL ( #49, ( #121 ) ) ;
#121 = PRODUCT_DEFINITION ( 'UNKNOWN', '', #5, #70 ) ;
#122 = DIRECTION ( 'NONE',  ( 0.0000000000000000000, 1.000000000000000000, 0.0000000000000000000 ) ) ;
#123 = CARTESIAN_POINT ( 'NONE',  ( -1.691795918676423373E-31, 5.934021280790018056E-33, -4.845496093176836234E-17 ) ) ;
#124 = DIRECTION ( 'NONE',  ( -3.491481338843133355E-15, 1.224646799147353207E-16, -1.000000000000000000 ) ) ;
#125 = DIRECTION ( 'NONE',  ( -3.491481338843133355E-15, 1.224646799147353207E-16, -1.000000000000000000 ) ) ;
#126 = APPLICATION_PROTOCOL_DEFINITION ( 'international standard', 'config_control_design', 1994, #7 ) ;
#127 = DATE_AND_TIME ( #56, #172 ) ;
#128 = CIRCLE ( 'NONE', #90, 0.6000000000000000888 ) ;
#129 = ORGANIZATION ( 'UNSPECIFIED', 'UNSPECIFIED', '' ) ;
#130 = EDGE_CURVE ( 'NONE', #277, #277, #94, .T. ) ;
#131 = PERSON_AND_ORGANIZATION ( #216, #129 ) ;
#132 = CALENDAR_DATE ( 2021, 16, 12 ) ;
#133 = CARTESIAN_POINT ( 'NONE',  ( 0.0000000000000000000, 0.0000000000000000000, 0.0000000000000000000 ) ) ;
#134 = AXIS2_PLACEMENT_3D ( 'NONE', #9, #97, #272 ) ;
#135 = APPROVAL_PERSON_ORGANIZATION ( #99, #3, #159 ) ;
#136 = EDGE_CURVE ( 'NONE', #80, #80, #195, .T. ) ;
#137 = FACE_OUTER_BOUND ( 'NONE', #155, .T. ) ;
#138 = ORIENTED_EDGE ( 'NONE', *, *, #130, .T. ) ;
#139 = FACE_BOUND ( 'NONE', #196, .T. ) ;
#140 = DIRECTION ( 'NONE',  ( 4.275831445896957731E-31, 1.000000000000000000, 1.224646799147353207E-16 ) ) ;
#141 = CARTESIAN_POINT ( 'NONE',  ( 1.047444401652940007E-13, -3.673940397442059178E-15, 30.00000000000000000 ) ) ;
#142 = UNCERTAINTY_MEASURE_WITH_UNIT (LENGTH_MEASURE( 1.000000000000000082E-05 ), #280, 'distance_accuracy_value', 'NONE');
#143 = CIRCLE ( 'NONE', #169, 0.4659999999999995257 ) ;
#144 = FACE_OUTER_BOUND ( 'NONE', #226, .T. ) ;
#145 = DATE_TIME_ROLE ( 'creation_date' ) ;
#146 = EDGE_CURVE ( 'NONE', #236, #236, #128, .T. ) ;
#147 = AXIS2_PLACEMENT_3D ( 'NONE', #123, #10, #98 ) ;
#148 = DIRECTION ( 'NONE',  ( 1.000000000000000000, 0.0000000000000000000, 0.0000000000000000000 ) ) ;
#149 = PERSON_AND_ORGANIZATION ( #216, #129 ) ;
#150 = ORIENTED_EDGE ( 'NONE', *, *, #240, .T. ) ;
#151 = EDGE_CURVE ( 'NONE', #86, #86, #264, .T. ) ;
#152 = APPLICATION_PROTOCOL_DEFINITION ( 'international standard', 'config_control_design', 1994, #241 ) ;
#153 = AXIS2_PLACEMENT_3D ( 'NONE', #27, #124, #30 ) ;
#154 = CALENDAR_DATE ( 2021, 16, 12 ) ;
#155 = EDGE_LOOP ( 'NONE', ( #205 ) ) ;
#156 = PRODUCT ( '986886', '986886', '', ( #223 ) ) ;
#157 = COORDINATED_UNIVERSAL_TIME_OFFSET ( 1, 0, .AHEAD. ) ;
#158 = CARTESIAN_POINT ( 'NONE',  ( 1.396592535537253342E-14, 3.494440293602119660E-33, 4.000000000000000000 ) ) ;
#159 = APPROVAL_ROLE ( '' ) ;
#160 = APPROVAL_PERSON_ORGANIZATION ( #218, #273, #108 ) ;
#161 = CARTESIAN_POINT ( 'NONE',  ( 0.0000000000000000000, 0.0000000000000000000, 0.0000000000000000000 ) ) ;
#162 = CARTESIAN_POINT ( 'NONE',  ( 2.358499820793708848E-15, -8.272503777097774794E-17, 0.6755011961699826095 ) ) ;
#163 = MANIFOLD_SOLID_BREP ( 'Corps-Déplacer/Copier1[2]', #47 ) ;
#164 = FACE_OUTER_BOUND ( 'NONE', #1, .T. ) ;
#165 = ORIENTED_EDGE ( 'NONE', *, *, #136, .F. ) ;
#166 = FACE_OUTER_BOUND ( 'NONE', #181, .T. ) ;
#167 = DIRECTION ( 'NONE',  ( 3.491481338843133355E-15, -1.224646799147353207E-16, 1.000000000000000000 ) ) ;
#168 = EDGE_CURVE ( 'NONE', #15, #15, #254, .T. ) ;
#169 = AXIS2_PLACEMENT_3D ( 'NONE', #2, #92, #182 ) ;
#170 = PLANE ( 'NONE',  #243 ) ;
#171 = DIRECTION ( 'NONE',  ( 0.0000000000000000000, 1.000000000000000000, 0.0000000000000000000 ) ) ;
#172 = LOCAL_TIME ( 9, 57, 36.00000000000000000, #258 ) ;
#173 = DATE_AND_TIME ( #105, #40 ) ;
#174 = PERSON_AND_ORGANIZATION_ROLE ( 'creator' ) ;
#175 = ORIENTED_EDGE ( 'NONE', *, *, #151, .F. ) ;
#176 = CARTESIAN_POINT ( 'NONE',  ( 1.396592535537253342E-14, 0.4659999999999994147, 4.000000000000000000 ) ) ;
#177 = CARTESIAN_POINT ( 'NONE',  ( -4.731839565957905581E-32, 0.2849999999999999201, -1.355252715606880543E-17 ) ) ;
#178 = ORIENTED_EDGE ( 'NONE', *, *, #240, .F. ) ;
#179 = DATE_TIME_ROLE ( 'classification_date' ) ;
#180 = VERTEX_POINT ( 'NONE', #177 ) ;
#181 = EDGE_LOOP ( 'NONE', ( #138 ) ) ;
#182 = DIRECTION ( 'NONE',  ( 8.265793752734925583E-31, 1.000000000000000000, 2.326614104046149038E-16 ) ) ;
#183 = CARTESIAN_POINT ( 'NONE',  ( 1.815570296198429345E-14, -6.505213034913026604E-16, 5.200000000000000178 ) ) ;
#184 = FACE_OUTER_BOUND ( 'NONE', #58, .T. ) ;
#185 = LOCAL_TIME ( 9, 57, 36.00000000000000000, #204 ) ;
#186 = EDGE_LOOP ( 'NONE', ( #85 ) ) ;
#187 = ADVANCED_FACE ( 'NONE', ( #76, #11 ), #39, .T. ) ;
#188 = DIRECTION ( 'NONE',  ( -3.491481338843133355E-15, 1.224646799147353207E-16, -1.000000000000000000 ) ) ;
#189 = FACE_OUTER_BOUND ( 'NONE', #246, .T. ) ;
#190 =( GEOMETRIC_REPRESENTATION_CONTEXT ( 3 ) GLOBAL_UNCERTAINTY_ASSIGNED_CONTEXT ( ( #142 ) ) GLOBAL_UNIT_ASSIGNED_CONTEXT ( ( #280, #219, #63 ) ) REPRESENTATION_CONTEXT ( 'NONE', 'WORKASPACE' ) );
#191 = CC_DESIGN_DATE_AND_TIME_ASSIGNMENT ( #279, #179, ( #29 ) ) ;
#192 = DIRECTION ( 'NONE',  ( 4.275831445896957731E-31, 1.000000000000000000, 1.224646799147353207E-16 ) ) ;
#193 = CARTESIAN_POINT ( 'NONE',  ( 1.047444401652940007E-13, 4.499279347985518085E-33, 30.00000000000000000 ) ) ;
#194 = PERSON_AND_ORGANIZATION ( #216, #129 ) ;
#195 = CIRCLE ( 'NONE', #153, 0.4830370868554653696 ) ;
#196 = EDGE_LOOP ( 'NONE', ( #165 ) ) ;
#197 = ADVANCED_FACE ( 'NONE', ( #144 ), #170, .F. ) ;
#198 = CARTESIAN_POINT ( 'NONE',  ( 1.860753389504060636E-14, 0.4830370868554647590, 5.329409522551256551 ) ) ;
#199 = EDGE_LOOP ( 'NONE', ( #210 ) ) ;
#200 = APPROVAL_ROLE ( '' ) ;
#201 = PERSON_AND_ORGANIZATION_ROLE ( 'design_supplier' ) ;
#202 = ADVANCED_FACE ( 'NONE', ( #189 ), #253, .F. ) ;
#203 = CC_DESIGN_APPROVAL ( #273, ( #29 ) ) ;
#204 = COORDINATED_UNIVERSAL_TIME_OFFSET ( 1, 0, .AHEAD. ) ;
#205 = ORIENTED_EDGE ( 'NONE', *, *, #136, .T. ) ;
#206 = FACE_OUTER_BOUND ( 'NONE', #278, .T. ) ;
#207 = CARTESIAN_POINT ( 'NONE',  ( 2.208616363432207904E-14, -7.746783377962777177E-16, 6.325728678143273775 ) ) ;
#208 = AXIS2_PLACEMENT_3D ( 'NONE', #45, #72, #263 ) ;
#209 = LOCAL_TIME ( 9, 57, 36.00000000000000000, #13 ) ;
#210 = ORIENTED_EDGE ( 'NONE', *, *, #146, .T. ) ;
#211 = DIRECTION ( 'NONE',  ( -3.491481338843133355E-15, 1.224646799147353207E-16, -1.000000000000000000 ) ) ;
#212 = DIRECTION ( 'NONE',  ( -8.265793752734925583E-31, -1.000000000000000000, -2.326614104046149038E-16 ) ) ;
#213 = ADVANCED_FACE ( 'NONE', ( #252, #28 ), #48, .T. ) ;
#214 = AXIS2_PLACEMENT_3D ( 'NONE', #6, #188, #230 ) ;
#215 = DIRECTION ( 'NONE',  ( -3.491481338843133355E-15, 1.224646799147353207E-16, -1.000000000000000000 ) ) ;
#216 = PERSON ( 'UNSPECIFIED', 'UNSPECIFIED', 'UNSPECIFIED', ('UNSPECIFIED'), ('UNSPECIFIED'), ('UNSPECIFIED') ) ;
#217 = DIRECTION ( 'NONE',  ( 4.275831445896958607E-31, 1.000000000000000000, 1.224646799147353207E-16 ) ) ;
#218 = PERSON_AND_ORGANIZATION ( #216, #129 ) ;
#219 =( NAMED_UNIT ( * ) PLANE_ANGLE_UNIT ( ) SI_UNIT ( $, .RADIAN. ) );
#220 = VERTEX_POINT ( 'NONE', #106 ) ;
#221 = AXIS2_PLACEMENT_3D ( 'NONE', #44, #211, #95 ) ;
#222 = DIRECTION ( 'NONE',  ( 3.491481338843133355E-15, -1.224646799147353207E-16, 1.000000000000000000 ) ) ;
#223 = MECHANICAL_CONTEXT ( 'NONE', #241, 'mechanical' ) ;
#224 = APPROVAL_DATE_TIME ( #36, #3 ) ;
#225 = AXIS2_PLACEMENT_3D ( 'NONE', #161, #274, #192 ) ;
#226 = EDGE_LOOP ( 'NONE', ( #4 ) ) ;
#227 = DIRECTION ( 'NONE',  ( -3.491481338843133355E-15, 1.224646799147353207E-16, -1.000000000000000000 ) ) ;
#228 = LOCAL_TIME ( 9, 57, 36.00000000000000000, #157 ) ;
#229 = DIRECTION ( 'NONE',  ( 4.275831445896958607E-31, 1.000000000000000000, 1.224646799147353207E-16 ) ) ;
#230 = DIRECTION ( 'NONE',  ( 0.0000000000000000000, 1.000000000000000000, 0.0000000000000000000 ) ) ;
#231 = CIRCLE ( 'NONE', #221, 0.4659999999999999143 ) ;
#232 = DIRECTION ( 'NONE',  ( 4.275831445896958607E-31, 1.000000000000000000, 1.224646799147353454E-16 ) ) ;
#233 = DIRECTION ( 'NONE',  ( -3.491481338843133355E-15, 1.224646799147353207E-16, -1.000000000000000000 ) ) ;
#234 = DIRECTION ( 'NONE',  ( 0.0000000000000000000, 1.000000000000000000, 0.0000000000000000000 ) ) ;
#235 = EDGE_CURVE ( 'NONE', #180, #180, #268, .T. ) ;
#236 = VERTEX_POINT ( 'NONE', #110 ) ;
#237 = ORIENTED_EDGE ( 'NONE', *, *, #8, .T. ) ;
#238 = CARTESIAN_POINT ( 'NONE',  ( 2.208616363432207904E-14, 0.7499999999999963363, 6.325728678143273775 ) ) ;
#239 = AXIS2_PLACEMENT_3D ( 'NONE', #24, #233, #122 ) ;
#240 = EDGE_CURVE ( 'NONE', #37, #37, #21, .T. ) ;
#241 = APPLICATION_CONTEXT ( 'configuration controlled 3d designs of mechanical parts and assemblies' ) ;
#242 = SECURITY_CLASSIFICATION_LEVEL ( 'unclassified' ) ;
#243 = AXIS2_PLACEMENT_3D ( 'NONE', #193, #125, #217 ) ;
#244 = DIRECTION ( 'NONE',  ( 3.491481338843133355E-15, -1.224646799147353207E-16, 1.000000000000000000 ) ) ;
#245 = FACE_BOUND ( 'NONE', #81, .T. ) ;
#246 = EDGE_LOOP ( 'NONE', ( #19 ) ) ;
#247 = DIRECTION ( 'NONE',  ( 0.0000000000000000000, 1.000000000000000000, 0.0000000000000000000 ) ) ;
#248 = AXIS2_PLACEMENT_3D ( 'NONE', #67, #71, #140 ) ;
#249 = MANIFOLD_SOLID_BREP ( 'Corps-Déplacer/Copier1[1]', #66 ) ;
#250 = AXIS2_PLACEMENT_3D ( 'NONE', #50, #51, #171 ) ;
#251 = DIRECTION ( 'NONE',  ( -3.491481338843133355E-15, 1.224646799147353207E-16, -1.000000000000000000 ) ) ;
#252 = FACE_OUTER_BOUND ( 'NONE', #107, .T. ) ;
#253 = PLANE ( 'NONE',  #25 ) ;
#254 = CIRCLE ( 'NONE', #134, 0.4659999999999999143 ) ;
#255 = CC_DESIGN_DATE_AND_TIME_ASSIGNMENT ( #127, #145, ( #121 ) ) ;
#256 = AXIS2_PLACEMENT_3D ( 'NONE', #158, #222, #20 ) ;
#257 = SHAPE_DEFINITION_REPRESENTATION ( #64, #34 ) ;
#258 = COORDINATED_UNIVERSAL_TIME_OFFSET ( 1, 0, .AHEAD. ) ;
#259 = ORIENTED_EDGE ( 'NONE', *, *, #62, .T. ) ;
#260 = DIRECTION ( 'NONE',  ( 0.0000000000000000000, 0.0000000000000000000, 1.000000000000000000 ) ) ;
#261 = ADVANCED_FACE ( 'NONE', ( #119 ), #270, .F. ) ;
#262 = VERTEX_POINT ( 'NONE', #176 ) ;
#263 = DIRECTION ( 'NONE',  ( -4.275831445896958607E-31, -1.000000000000000000, -1.224646799147353207E-16 ) ) ;
#264 = CIRCLE ( 'NONE', #33, 0.7499999999999971134 ) ;
#265 = AXIS2_PLACEMENT_3D ( 'NONE', #133, #260, #148 ) ;
#266 = DIRECTION ( 'NONE',  ( 0.0000000000000000000, -1.000000000000000000, 0.0000000000000000000 ) ) ;
#267 = ORIENTED_EDGE ( 'NONE', *, *, #151, .T. ) ;
#268 = CIRCLE ( 'NONE', #147, 0.2849999999999999201 ) ;
#269 = FACE_OUTER_BOUND ( 'NONE', #69, .T. ) ;
#270 = PLANE ( 'NONE',  #256 ) ;
#271 = DIRECTION ( 'NONE',  ( -3.491481338843133355E-15, 1.224646799147353207E-16, -1.000000000000000000 ) ) ;
#272 = DIRECTION ( 'NONE',  ( 0.0000000000000000000, 1.000000000000000000, 0.0000000000000000000 ) ) ;
#273 = APPROVAL ( #12, 'UNSPECIFIED' ) ;
#274 = DIRECTION ( 'NONE',  ( -3.491481338843133355E-15, 1.224646799147353207E-16, -1.000000000000000000 ) ) ;
#275 = AXIS2_PLACEMENT_3D ( 'NONE', #74, #251, #232 ) ;
#276 = EDGE_LOOP ( 'NONE', ( #150 ) ) ;
#277 = VERTEX_POINT ( 'NONE', #84 ) ;
#278 = EDGE_LOOP ( 'NONE', ( #267 ) ) ;
#279 = DATE_AND_TIME ( #88, #185 ) ;
#280 =( LENGTH_UNIT ( ) NAMED_UNIT ( * ) SI_UNIT ( .MILLI., .METRE. ) );
#281 = ORIENTED_EDGE ( 'NONE', *, *, #168, .F. ) ;
#282 = CC_DESIGN_PERSON_AND_ORGANIZATION_ASSIGNMENT ( #194, #174, ( #121 ) ) ;
#283 = CYLINDRICAL_SURFACE ( 'NONE', #225, 0.4659999999999997478 ) ;
ENDSEC;
END-ISO-10303-21;
