ISO-10303-21;
HEADER;
FILE_DESCRIPTION (( 'STEP AP203' ),
    '1' );
FILE_NAME ('986885.step',
    '2021-12-16T08:57:36',
    ( '' ),
    ( '' ),
    'SwSTEP 2.0',
    'SolidWorks 2019',
    '' );
FILE_SCHEMA (( 'CONFIG_CONTROL_DESIGN' ));
ENDSEC;

DATA;
#1 = ADVANCED_FACE ( 'NONE', ( #184, #135 ), #143, .T. ) ;
#2 = APPROVAL_ROLE ( '' ) ;
#3 = COORDINATED_UNIVERSAL_TIME_OFFSET ( 1, 0, .AHEAD. ) ;
#4 = APPLICATION_PROTOCOL_DEFINITION ( 'international standard', 'config_control_design', 1994, #187 ) ;
#5 = APPROVAL_STATUS ( 'not_yet_approved' ) ;
#6 = CC_DESIGN_SECURITY_CLASSIFICATION ( #233, ( #67 ) ) ;
#7 = FACE_OUTER_BOUND ( 'NONE', #161, .T. ) ;
#8 = APPROVAL ( #22, 'UNSPECIFIED' ) ;
#9 = EDGE_LOOP ( 'NONE', ( #254 ) ) ;
#10 = AXIS2_PLACEMENT_3D ( 'NONE', #26, #206, #71 ) ;
#11 = ORIENTED_EDGE ( 'NONE', *, *, #151, .T. ) ;
#12 = FACE_BOUND ( 'NONE', #169, .T. ) ;
#13 = EDGE_LOOP ( 'NONE', ( #272 ) ) ;
#14 = DIRECTION ( 'NONE',  ( 0.0000000000000000000, 1.000000000000000000, 0.0000000000000000000 ) ) ;
#15 = ORIENTED_EDGE ( 'NONE', *, *, #237, .T. ) ;
#16 = CC_DESIGN_APPROVAL ( #240, ( #233 ) ) ;
#17 = EDGE_LOOP ( 'NONE', ( #49 ) ) ;
#18 = FACE_BOUND ( 'NONE', #209, .T. ) ;
#19 = CARTESIAN_POINT ( 'NONE',  ( 1.042207179644675275E-13, 0.7499999999999962252, 29.84999999999999787 ) ) ;
#20 = DIRECTION ( 'NONE',  ( 3.491481338843133355E-15, -1.224646799147353207E-16, 1.000000000000000000 ) ) ;
#21 = ADVANCED_FACE ( 'NONE', ( #12, #141 ), #140, .T. ) ;
#22 = APPROVAL_STATUS ( 'not_yet_approved' ) ;
#23 = CALENDAR_DATE ( 2021, 16, 12 ) ;
#24 = AXIS2_PLACEMENT_3D ( 'NONE', #166, #48, #138 ) ;
#25 = ORGANIZATION ( 'UNSPECIFIED', 'UNSPECIFIED', '' ) ;
#26 = CARTESIAN_POINT ( 'NONE',  ( 1.047444401652940007E-13, -3.673940397442059178E-15, 30.00000000000000000 ) ) ;
#27 = APPROVAL ( #5, 'UNSPECIFIED' ) ;
#28 = DIRECTION ( 'NONE',  ( -3.491481338843133355E-15, 1.224646799147353207E-16, -1.000000000000000000 ) ) ;
#29 = CARTESIAN_POINT ( 'NONE',  ( 1.798112889504213678E-14, -6.306931015608868610E-16, 5.150000000000000355 ) ) ;
#30 = AXIS2_PLACEMENT_3D ( 'NONE', #115, #207, #116 ) ;
#31 = EDGE_LOOP ( 'NONE', ( #74 ) ) ;
#32 = CARTESIAN_POINT ( 'NONE',  ( 2.078346527163515890E-15, -7.289858300812676372E-17, 0.5952621038072495319 ) ) ;
#33 = EDGE_LOOP ( 'NONE', ( #229 ) ) ;
#34 = DIRECTION ( 'NONE',  ( -3.491481338843133355E-15, 1.224646799147353207E-16, -1.000000000000000000 ) ) ;
#35 = VERTEX_POINT ( 'NONE', #38 ) ;
#36 = AXIS2_PLACEMENT_3D ( 'NONE', #32, #183, #242 ) ;
#37 = DIRECTION ( 'NONE',  ( -3.491481338843133355E-15, 1.224646799147353207E-16, -1.000000000000000000 ) ) ;
#38 = CARTESIAN_POINT ( 'NONE',  ( 2.258265443351736693E-14, 0.7499999999999963363, 6.467929294733076873 ) ) ;
#39 = EDGE_CURVE ( 'NONE', #56, #56, #255, .T. ) ;
#40 = FACE_OUTER_BOUND ( 'NONE', #190, .T. ) ;
#41 = COORDINATED_UNIVERSAL_TIME_OFFSET ( 1, 0, .AHEAD. ) ;
#42 = CIRCLE ( 'NONE', #30, 0.4144999999999998685 ) ;
#43 = PERSON_AND_ORGANIZATION_ROLE ( 'creator' ) ;
#44 = APPROVAL_DATE_TIME ( #241, #240 ) ;
#45 = EDGE_CURVE ( 'NONE', #35, #35, #59, .T. ) ;
#46 = PLANE ( 'NONE',  #210 ) ;
#47 = FACE_OUTER_BOUND ( 'NONE', #232, .T. ) ;
#48 = DIRECTION ( 'NONE',  ( 3.491481338843133355E-15, -1.224646799147353207E-16, 1.000000000000000000 ) ) ;
#49 = ORIENTED_EDGE ( 'NONE', *, *, #237, .F. ) ;
#50 = DIRECTION ( 'NONE',  ( -3.491481338843133355E-15, 1.224646799147353207E-16, -1.000000000000000000 ) ) ;
#51 = LOCAL_TIME ( 9, 57, 36.00000000000000000, #263 ) ;
#52 = EDGE_LOOP ( 'NONE', ( #99 ) ) ;
#53 = DIRECTION ( 'NONE',  ( 4.275831445896958607E-31, 1.000000000000000000, 1.224646799147353454E-16 ) ) ;
#54 = CARTESIAN_POINT ( 'NONE',  ( 2.078346527163515890E-15, 0.4144999999999993689, 0.5952621038072495319 ) ) ;
#55 = CC_DESIGN_PERSON_AND_ORGANIZATION_ASSIGNMENT ( #130, #156, ( #109 ) ) ;
#56 = VERTEX_POINT ( 'NONE', #282 ) ;
#57 = VERTEX_POINT ( 'NONE', #193 ) ;
#58 = VERTEX_POINT ( 'NONE', #19 ) ;
#59 = CIRCLE ( 'NONE', #215, 0.7499999999999971134 ) ;
#60 = PERSON_AND_ORGANIZATION_ROLE ( 'design_supplier' ) ;
#61 = DIRECTION ( 'NONE',  ( 0.0000000000000000000, 0.0000000000000000000, 1.000000000000000000 ) ) ;
#62 = AXIS2_PLACEMENT_3D ( 'NONE', #79, #172, #76 ) ;
#63 = MECHANICAL_CONTEXT ( 'NONE', #122, 'mechanical' ) ;
#64 = DATE_AND_TIME ( #236, #81 ) ;
#65 = ADVANCED_FACE ( 'NONE', ( #7, #111 ), #268, .F. ) ;
#66 = CARTESIAN_POINT ( 'NONE',  ( 0.0000000000000000000, 0.0000000000000000000, 0.0000000000000000000 ) ) ;
#67 = PRODUCT_DEFINITION_FORMATION_WITH_SPECIFIED_SOURCE ( 'ANY', '', #109, .NOT_KNOWN. ) ;
#68 = ORIENTED_EDGE ( 'NONE', *, *, #105, .F. ) ;
#69 = MANIFOLD_SOLID_BREP ( 'Corps-Déplacer/Copier1[1]', #178 ) ;
#70 = ORIENTED_EDGE ( 'NONE', *, *, #202, .T. ) ;
#71 = DIRECTION ( 'NONE',  ( 0.0000000000000000000, 1.000000000000000000, 0.0000000000000000000 ) ) ;
#72 = ORIENTED_EDGE ( 'NONE', *, *, #252, .F. ) ;
#73 = DIRECTION ( 'NONE',  ( 4.275831445896958607E-31, 1.000000000000000000, 1.224646799147353207E-16 ) ) ;
#74 = ORIENTED_EDGE ( 'NONE', *, *, #202, .F. ) ;
#75 = CC_DESIGN_DATE_AND_TIME_ASSIGNMENT ( #200, #104, ( #231 ) ) ;
#76 = DIRECTION ( 'NONE',  ( -4.275831445896958607E-31, -1.000000000000000000, -1.224646799147353207E-16 ) ) ;
#77 = ORIENTED_EDGE ( 'NONE', *, *, #159, .T. ) ;
#78 = VERTEX_POINT ( 'NONE', #258 ) ;
#79 = CARTESIAN_POINT ( 'NONE',  ( 1.396592535537253342E-14, 3.108252149566692065E-33, 4.000000000000000000 ) ) ;
#80 = AXIS2_PLACEMENT_3D ( 'NONE', #103, #37, #144 ) ;
#81 = LOCAL_TIME ( 9, 57, 36.00000000000000000, #198 ) ;
#82 = ADVANCED_FACE ( 'NONE', ( #224, #160 ), #208, .T. ) ;
#83 = PERSON_AND_ORGANIZATION_ROLE ( 'creator' ) ;
#84 = CALENDAR_DATE ( 2021, 16, 12 ) ;
#85 = CONICAL_SURFACE ( 'NONE', #250, 0.7499999999999971134, 0.2617993877991426910 ) ;
#86 = SECURITY_CLASSIFICATION_LEVEL ( 'unclassified' ) ;
#87 = CARTESIAN_POINT ( 'NONE',  ( 1.396592535537253342E-14, -4.898587196589412829E-16, 4.000000000000000000 ) ) ;
#88 = CYLINDRICAL_SURFACE ( 'NONE', #112, 0.4144999999999996465 ) ;
#89 = CLOSED_SHELL ( 'NONE', ( #180, #21, #173, #191 ) ) ;
#90 = DIRECTION ( 'NONE',  ( 4.275831445896959482E-31, 1.000000000000000000, 1.224646799147353207E-16 ) ) ;
#91 = CARTESIAN_POINT ( 'NONE',  ( 1.798112889504213678E-14, -6.505213034913026604E-16, 5.150000000000000355 ) ) ;
#92 = ORIENTED_EDGE ( 'NONE', *, *, #159, .F. ) ;
#93 = FACE_OUTER_BOUND ( 'NONE', #52, .T. ) ;
#94 = EDGE_LOOP ( 'NONE', ( #11 ) ) ;
#95 = DIRECTION ( 'NONE',  ( -3.491481338843133355E-15, 1.224646799147353207E-16, -1.000000000000000000 ) ) ;
#96 = CIRCLE ( 'NONE', #259, 0.4145000000000000351 ) ;
#97 = ADVANCED_FACE ( 'NONE', ( #223 ), #162, .F. ) ;
#98 = DIRECTION ( 'NONE',  ( 0.0000000000000000000, 1.000000000000000000, 0.0000000000000000000 ) ) ;
#99 = ORIENTED_EDGE ( 'NONE', *, *, #39, .T. ) ;
#100 = CARTESIAN_POINT ( 'NONE',  ( -7.817604876497574346E-32, 2.742046672995730797E-33, -2.239051026716315543E-17 ) ) ;
#101 = CARTESIAN_POINT ( 'NONE',  ( 1.042207179644675275E-13, -3.655570695454848748E-15, 29.84999999999999787 ) ) ;
#102 = CIRCLE ( 'NONE', #264, 0.4315370868554648243 ) ;
#103 = CARTESIAN_POINT ( 'NONE',  ( 1.047444401652940007E-13, -3.673940397442059178E-15, 30.00000000000000000 ) ) ;
#104 = DATE_TIME_ROLE ( 'creation_date' ) ;
#105 = EDGE_CURVE ( 'NONE', #57, #57, #96, .T. ) ;
#106 = COORDINATED_UNIVERSAL_TIME_OFFSET ( 1, 0, .AHEAD. ) ;
#107 = DATE_TIME_ROLE ( 'classification_date' ) ;
#108 = APPROVAL_PERSON_ORGANIZATION ( #201, #240, #265 ) ;
#109 = PRODUCT ( '986885', '986885', '', ( #63 ) ) ;
#110 = CARTESIAN_POINT ( 'NONE',  ( 0.0000000000000000000, 0.0000000000000000000, 0.0000000000000000000 ) ) ;
#111 = FACE_OUTER_BOUND ( 'NONE', #9, .T. ) ;
#112 = AXIS2_PLACEMENT_3D ( 'NONE', #66, #158, #136 ) ;
#113 = FACE_BOUND ( 'NONE', #142, .T. ) ;
#114 = CC_DESIGN_PERSON_AND_ORGANIZATION_ASSIGNMENT ( #131, #179, ( #233 ) ) ;
#115 = CARTESIAN_POINT ( 'NONE',  ( 1.396592535537253342E-14, -4.898587196589412829E-16, 4.000000000000000000 ) ) ;
#116 = DIRECTION ( 'NONE',  ( 0.0000000000000000000, 1.000000000000000000, 0.0000000000000000000 ) ) ;
#117 = ADVANCED_FACE ( 'NONE', ( #245, #113 ), #133, .T. ) ;
#118 = ORIENTED_EDGE ( 'NONE', *, *, #151, .F. ) ;
#119 = VERTEX_POINT ( 'NONE', #147 ) ;
#120 = AXIS2_PLACEMENT_3D ( 'NONE', #101, #95, #98 ) ;
#121 = CC_DESIGN_APPROVAL ( #8, ( #231 ) ) ;
#122 = APPLICATION_CONTEXT ( 'configuration controlled 3d designs of mechanical parts and assemblies' ) ;
#123 = FACE_OUTER_BOUND ( 'NONE', #247, .T. ) ;
#124 = VERTEX_POINT ( 'NONE', #214 ) ;
#125 = DIRECTION ( 'NONE',  ( 3.491481338843133355E-15, -1.224646799147353207E-16, 1.000000000000000000 ) ) ;
#126 = DESIGN_CONTEXT ( 'detailed design', #187, 'design' ) ;
#127 = CC_DESIGN_PERSON_AND_ORGANIZATION_ASSIGNMENT ( #218, #83, ( #231 ) ) ;
#128 = APPROVAL_DATE_TIME ( #64, #8 ) ;
#129 = AXIS2_PLACEMENT_3D ( 'NONE', #226, #181, #90 ) ;
#130 = PERSON_AND_ORGANIZATION ( #196, #25 ) ;
#131 = PERSON_AND_ORGANIZATION ( #196, #25 ) ;
#132 = UNCERTAINTY_MEASURE_WITH_UNIT (LENGTH_MEASURE( 1.000000000000000082E-05 ), #280, 'distance_accuracy_value', 'NONE');
#133 = CONICAL_SURFACE ( 'NONE', #10, 0.6000000000000000888, 0.7853981633974450594 ) ;
#134 = LOCAL_TIME ( 9, 57, 36.00000000000000000, #41 ) ;
#135 = FACE_OUTER_BOUND ( 'NONE', #33, .T. ) ;
#136 = DIRECTION ( 'NONE',  ( 4.275831445896958607E-31, 1.000000000000000000, 1.224646799147353207E-16 ) ) ;
#137 = EDGE_CURVE ( 'NONE', #192, #192, #185, .T. ) ;
#138 = DIRECTION ( 'NONE',  ( 0.0000000000000000000, -1.000000000000000000, 0.0000000000000000000 ) ) ;
#139 = EDGE_LOOP ( 'NONE', ( #77 ) ) ;
#140 = CONICAL_SURFACE ( 'NONE', #24, 0.4144999999999994245, 0.2617993877991428575 ) ;
#141 = FACE_OUTER_BOUND ( 'NONE', #13, .T. ) ;
#142 = EDGE_LOOP ( 'NONE', ( #70 ) ) ;
#143 = CYLINDRICAL_SURFACE ( 'NONE', #274, 0.4144999999999999241 ) ;
#144 = DIRECTION ( 'NONE',  ( 0.0000000000000000000, 1.000000000000000000, 0.0000000000000000000 ) ) ;
#145 = CARTESIAN_POINT ( 'NONE',  ( 2.258265443351736693E-14, -7.920928907906260713E-16, 6.467929294733076873 ) ) ;
#146 = DIRECTION ( 'NONE',  ( -4.275831445896958607E-31, -1.000000000000000000, -1.224646799147353207E-16 ) ) ;
#147 = CARTESIAN_POINT ( 'NONE',  ( 1.047444401652940007E-13, 0.5999999999999963141, 30.00000000000000000 ) ) ;
#148 =( NAMED_UNIT ( * ) PLANE_ANGLE_UNIT ( ) SI_UNIT ( $, .RADIAN. ) );
#149 = AXIS2_PLACEMENT_3D ( 'NONE', #91, #251, #164 ) ;
#150 =( GEOMETRIC_REPRESENTATION_CONTEXT ( 3 ) GLOBAL_UNCERTAINTY_ASSIGNED_CONTEXT ( ( #132 ) ) GLOBAL_UNIT_ASSIGNED_CONTEXT ( ( #280, #148, #195 ) ) REPRESENTATION_CONTEXT ( 'NONE', 'WORKASPACE' ) );
#151 = EDGE_CURVE ( 'NONE', #78, #78, #42, .T. ) ;
#152 = APPROVAL_STATUS ( 'not_yet_approved' ) ;
#153 = ADVANCED_BREP_SHAPE_REPRESENTATION ( '986885', ( #69, #171, #260 ), #150 ) ;
#154 = APPROVAL_ROLE ( '' ) ;
#155 = DATE_AND_TIME ( #23, #51 ) ;
#156 = PERSON_AND_ORGANIZATION_ROLE ( 'design_owner' ) ;
#157 = CALENDAR_DATE ( 2021, 16, 12 ) ;
#158 = DIRECTION ( 'NONE',  ( -3.491481338843133355E-15, 1.224646799147353207E-16, -1.000000000000000000 ) ) ;
#159 = EDGE_CURVE ( 'NONE', #124, #124, #177, .T. ) ;
#160 = FACE_OUTER_BOUND ( 'NONE', #227, .T. ) ;
#161 = EDGE_LOOP ( 'NONE', ( #68 ) ) ;
#162 = PLANE ( 'NONE',  #170 ) ;
#163 = EDGE_LOOP ( 'NONE', ( #118 ) ) ;
#164 = DIRECTION ( 'NONE',  ( 4.275831445896958607E-31, 1.000000000000000000, 1.224646799147353207E-16 ) ) ;
#165 = ORIENTED_EDGE ( 'NONE', *, *, #45, .T. ) ;
#166 = CARTESIAN_POINT ( 'NONE',  ( 2.078346527163515890E-15, -7.289858300812676372E-17, 0.5952621038072495319 ) ) ;
#167 = APPLICATION_PROTOCOL_DEFINITION ( 'international standard', 'config_control_design', 1994, #122 ) ;
#168 = CARTESIAN_POINT ( 'NONE',  ( 1.843295982809844654E-14, 0.4315370868554641581, 5.279409522551255840 ) ) ;
#169 = EDGE_LOOP ( 'NONE', ( #204 ) ) ;
#170 = AXIS2_PLACEMENT_3D ( 'NONE', #228, #34, #222 ) ;
#171 = MANIFOLD_SOLID_BREP ( 'Corps-Déplacer/Copier1[2]', #89 ) ;
#172 = DIRECTION ( 'NONE',  ( 3.491481338843133355E-15, -1.224646799147353207E-16, 1.000000000000000000 ) ) ;
#173 = ADVANCED_FACE ( 'NONE', ( #47, #267 ), #88, .T. ) ;
#174 = PERSON_AND_ORGANIZATION ( #196, #25 ) ;
#175 = PERSON_AND_ORGANIZATION ( #196, #25 ) ;
#176 = APPROVAL_DATE_TIME ( #283, #27 ) ;
#177 = CIRCLE ( 'NONE', #205, 0.4144999999999998685 ) ;
#178 = CLOSED_SHELL ( 'NONE', ( #220, #1, #65, #275, #82, #117, #97 ) ) ;
#179 = PERSON_AND_ORGANIZATION_ROLE ( 'classification_officer' ) ;
#180 = ADVANCED_FACE ( 'NONE', ( #93 ), #46, .F. ) ;
#181 = DIRECTION ( 'NONE',  ( -3.491481338843133355E-15, 1.224646799147353207E-16, -1.000000000000000000 ) ) ;
#182 = CARTESIAN_POINT ( 'NONE',  ( 2.258265443351736693E-14, -7.920928907906260713E-16, 6.467929294733076873 ) ) ;
#183 = DIRECTION ( 'NONE',  ( -3.491481338843133355E-15, 1.224646799147353207E-16, -1.000000000000000000 ) ) ;
#184 = FACE_OUTER_BOUND ( 'NONE', #163, .T. ) ;
#185 = CIRCLE ( 'NONE', #36, 0.4144999999999994245 ) ;
#186 = LOCAL_TIME ( 9, 57, 36.00000000000000000, #106 ) ;
#187 = APPLICATION_CONTEXT ( 'configuration controlled 3d designs of mechanical parts and assemblies' ) ;
#188 = CC_DESIGN_DATE_AND_TIME_ASSIGNMENT ( #155, #107, ( #233 ) ) ;
#189 = DIRECTION ( 'NONE',  ( 0.0000000000000000000, 1.000000000000000000, 0.0000000000000000000 ) ) ;
#190 = EDGE_LOOP ( 'NONE', ( #92 ) ) ;
#191 = ADVANCED_FACE ( 'NONE', ( #40 ), #257, .T. ) ;
#192 = VERTEX_POINT ( 'NONE', #54 ) ;
#193 = CARTESIAN_POINT ( 'NONE',  ( 1.798112889504213678E-14, 0.4144999999999993689, 5.150000000000000355 ) ) ;
#194 = AXIS2_PLACEMENT_3D ( 'NONE', #110, #248, #53 ) ;
#195 =( NAMED_UNIT ( * ) SI_UNIT ( $, .STERADIAN. ) SOLID_ANGLE_UNIT ( ) );
#196 = PERSON ( 'UNSPECIFIED', 'UNSPECIFIED', 'UNSPECIFIED', ('UNSPECIFIED'), ('UNSPECIFIED'), ('UNSPECIFIED') ) ;
#197 = DIRECTION ( 'NONE',  ( 1.000000000000000000, 0.0000000000000000000, 0.0000000000000000000 ) ) ;
#198 = COORDINATED_UNIVERSAL_TIME_OFFSET ( 1, 0, .AHEAD. ) ;
#199 = PERSON_AND_ORGANIZATION ( #196, #25 ) ;
#200 = DATE_AND_TIME ( #219, #186 ) ;
#201 = PERSON_AND_ORGANIZATION ( #196, #25 ) ;
#202 = EDGE_CURVE ( 'NONE', #119, #119, #281, .T. ) ;
#203 = DIRECTION ( 'NONE',  ( 0.0000000000000000000, 1.000000000000000000, 0.0000000000000000000 ) ) ;
#204 = ORIENTED_EDGE ( 'NONE', *, *, #39, .F. ) ;
#205 = AXIS2_PLACEMENT_3D ( 'NONE', #87, #266, #14 ) ;
#206 = DIRECTION ( 'NONE',  ( -3.491481338843133355E-15, 1.224646799147353207E-16, -1.000000000000000000 ) ) ;
#207 = DIRECTION ( 'NONE',  ( -3.491481338843133355E-15, 1.224646799147353207E-16, -1.000000000000000000 ) ) ;
#208 = CYLINDRICAL_SURFACE ( 'NONE', #194, 0.7499999999999984457 ) ;
#209 = EDGE_LOOP ( 'NONE', ( #72 ) ) ;
#210 = AXIS2_PLACEMENT_3D ( 'NONE', #100, #125, #146 ) ;
#211 = PLANE ( 'NONE',  #62 ) ;
#212 = CC_DESIGN_PERSON_AND_ORGANIZATION_ASSIGNMENT ( #175, #60, ( #67 ) ) ;
#213 = DIRECTION ( 'NONE',  ( 3.491481338843133355E-15, -1.224646799147353207E-16, 1.000000000000000000 ) ) ;
#214 = CARTESIAN_POINT ( 'NONE',  ( 1.396592535537253342E-14, 0.4144999999999993689, 4.000000000000000000 ) ) ;
#215 = AXIS2_PLACEMENT_3D ( 'NONE', #182, #28, #203 ) ;
#216 = PRODUCT_RELATED_PRODUCT_CATEGORY ( 'detail', '', ( #109 ) ) ;
#217 = SHAPE_DEFINITION_REPRESENTATION ( #244, #153 ) ;
#218 = PERSON_AND_ORGANIZATION ( #196, #25 ) ;
#219 = CALENDAR_DATE ( 2021, 16, 12 ) ;
#220 = ADVANCED_FACE ( 'NONE', ( #230 ), #211, .F. ) ;
#221 = LOCAL_TIME ( 9, 57, 36.00000000000000000, #3 ) ;
#222 = DIRECTION ( 'NONE',  ( 4.275831445896958607E-31, 1.000000000000000000, 1.224646799147353207E-16 ) ) ;
#223 = FACE_OUTER_BOUND ( 'NONE', #31, .T. ) ;
#224 = FACE_OUTER_BOUND ( 'NONE', #246, .T. ) ;
#225 = CIRCLE ( 'NONE', #120, 0.7499999999999998890 ) ;
#226 = CARTESIAN_POINT ( 'NONE',  ( -1.563520975299514869E-31, 5.484093345991461594E-33, -4.478102053432631085E-17 ) ) ;
#227 = EDGE_LOOP ( 'NONE', ( #15 ) ) ;
#228 = CARTESIAN_POINT ( 'NONE',  ( 1.047444401652940007E-13, 4.499279347985518085E-33, 30.00000000000000000 ) ) ;
#229 = ORIENTED_EDGE ( 'NONE', *, *, #105, .T. ) ;
#230 = FACE_OUTER_BOUND ( 'NONE', #94, .T. ) ;
#231 = PRODUCT_DEFINITION ( 'UNKNOWN', '', #67, #126 ) ;
#232 = EDGE_LOOP ( 'NONE', ( #249 ) ) ;
#233 = SECURITY_CLASSIFICATION ( '', '', #86 ) ;
#234 = DIRECTION ( 'NONE',  ( -4.275831445896958607E-31, -1.000000000000000000, -1.224646799147353207E-16 ) ) ;
#235 = VERTEX_POINT ( 'NONE', #168 ) ;
#236 = CALENDAR_DATE ( 2021, 16, 12 ) ;
#237 = EDGE_CURVE ( 'NONE', #58, #58, #225, .T. ) ;
#238 = AXIS2_PLACEMENT_3D ( 'NONE', #278, #213, #234 ) ;
#239 = PERSON_AND_ORGANIZATION ( #196, #25 ) ;
#240 = APPROVAL ( #152, 'UNSPECIFIED' ) ;
#241 = DATE_AND_TIME ( #157, #134 ) ;
#242 = DIRECTION ( 'NONE',  ( 0.0000000000000000000, 1.000000000000000000, 0.0000000000000000000 ) ) ;
#243 = APPROVAL_PERSON_ORGANIZATION ( #199, #27, #2 ) ;
#244 = PRODUCT_DEFINITION_SHAPE ( 'NONE', 'NONE',  #231 ) ;
#245 = FACE_OUTER_BOUND ( 'NONE', #17, .T. ) ;
#246 = EDGE_LOOP ( 'NONE', ( #279 ) ) ;
#247 = EDGE_LOOP ( 'NONE', ( #165 ) ) ;
#248 = DIRECTION ( 'NONE',  ( -3.491481338843133355E-15, 1.224646799147353207E-16, -1.000000000000000000 ) ) ;
#249 = ORIENTED_EDGE ( 'NONE', *, *, #137, .F. ) ;
#250 = AXIS2_PLACEMENT_3D ( 'NONE', #145, #20, #253 ) ;
#251 = DIRECTION ( 'NONE',  ( -3.491481338843133355E-15, 1.224646799147353207E-16, -1.000000000000000000 ) ) ;
#252 = EDGE_CURVE ( 'NONE', #235, #235, #102, .T. ) ;
#253 = DIRECTION ( 'NONE',  ( 0.0000000000000000000, -1.000000000000000000, 0.0000000000000000000 ) ) ;
#254 = ORIENTED_EDGE ( 'NONE', *, *, #252, .T. ) ;
#255 = CIRCLE ( 'NONE', #129, 0.2550000000000000044 ) ;
#256 = DIRECTION ( 'NONE',  ( -3.491481338843133355E-15, 1.224646799147353207E-16, -1.000000000000000000 ) ) ;
#257 = PLANE ( 'NONE',  #238 ) ;
#258 = CARTESIAN_POINT ( 'NONE',  ( 1.396592535537253342E-14, 0.4144999999999993689, 4.000000000000000000 ) ) ;
#259 = AXIS2_PLACEMENT_3D ( 'NONE', #29, #50, #271 ) ;
#260 = AXIS2_PLACEMENT_3D ( 'NONE', #262, #61, #197 ) ;
#261 = CC_DESIGN_PERSON_AND_ORGANIZATION_ASSIGNMENT ( #174, #43, ( #67 ) ) ;
#262 = CARTESIAN_POINT ( 'NONE',  ( 0.0000000000000000000, 0.0000000000000000000, 0.0000000000000000000 ) ) ;
#263 = COORDINATED_UNIVERSAL_TIME_OFFSET ( 1, 0, .AHEAD. ) ;
#264 = AXIS2_PLACEMENT_3D ( 'NONE', #277, #256, #189 ) ;
#265 = APPROVAL_ROLE ( '' ) ;
#266 = DIRECTION ( 'NONE',  ( -3.491481338843133355E-15, 1.224646799147353207E-16, -1.000000000000000000 ) ) ;
#267 = FACE_OUTER_BOUND ( 'NONE', #139, .T. ) ;
#268 = TOROIDAL_SURFACE ( 'NONE', #149, 0.9144999999999999796, 0.4999999999999997780 ) ;
#269 = CC_DESIGN_APPROVAL ( #27, ( #67 ) ) ;
#270 = CARTESIAN_POINT ( 'NONE',  ( 0.0000000000000000000, 0.0000000000000000000, 0.0000000000000000000 ) ) ;
#271 = DIRECTION ( 'NONE',  ( 0.0000000000000000000, 1.000000000000000000, 0.0000000000000000000 ) ) ;
#272 = ORIENTED_EDGE ( 'NONE', *, *, #137, .T. ) ;
#273 = DIRECTION ( 'NONE',  ( -3.491481338843133355E-15, 1.224646799147353207E-16, -1.000000000000000000 ) ) ;
#274 = AXIS2_PLACEMENT_3D ( 'NONE', #270, #273, #73 ) ;
#275 = ADVANCED_FACE ( 'NONE', ( #18, #123 ), #85, .T. ) ;
#276 = APPROVAL_PERSON_ORGANIZATION ( #239, #8, #154 ) ;
#277 = CARTESIAN_POINT ( 'NONE',  ( 1.843295982809844654E-14, -6.465411973180452204E-16, 5.279409522551255840 ) ) ;
#278 = CARTESIAN_POINT ( 'NONE',  ( 1.396592535537253342E-14, 3.108252149566692065E-33, 4.000000000000000000 ) ) ;
#279 = ORIENTED_EDGE ( 'NONE', *, *, #45, .F. ) ;
#280 =( LENGTH_UNIT ( ) NAMED_UNIT ( * ) SI_UNIT ( .MILLI., .METRE. ) );
#281 = CIRCLE ( 'NONE', #80, 0.6000000000000000888 ) ;
#282 = CARTESIAN_POINT ( 'NONE',  ( -4.731839565957903391E-32, 0.2550000000000000044, -1.355252715606880543E-17 ) ) ;
#283 = DATE_AND_TIME ( #84, #221 ) ;
ENDSEC;
END-ISO-10303-21;
