ISO-10303-21;
HEADER;
FILE_DESCRIPTION (( 'STEP AP203' ),
    '1' );
FILE_NAME ('986884.step',
    '2021-12-16T08:57:35',
    ( '' ),
    ( '' ),
    'SwSTEP 2.0',
    'SolidWorks 2019',
    '' );
FILE_SCHEMA (( 'CONFIG_CONTROL_DESIGN' ));
ENDSEC;

DATA;
#1 = CARTESIAN_POINT ( 'NONE',  ( 1.396592535537253342E-14, 2.718314606074610414E-33, 4.000000000000000000 ) ) ;
#2 = DIRECTION ( 'NONE',  ( 0.0000000000000000000, 1.000000000000000000, 0.0000000000000000000 ) ) ;
#3 = CIRCLE ( 'NONE', #89, 0.2200000000000000289 ) ;
#4 = DIRECTION ( 'NONE',  ( -4.275831445896958607E-31, -1.000000000000000000, -1.224646799147353207E-16 ) ) ;
#5 = CC_DESIGN_PERSON_AND_ORGANIZATION_ASSIGNMENT ( #97, #252, ( #206 ) ) ;
#6 = DIRECTION ( 'NONE',  ( 0.0000000000000000000, 1.000000000000000000, 0.0000000000000000000 ) ) ;
#7 = CARTESIAN_POINT ( 'NONE',  ( 1.856829969409412820E-15, -6.512882807936098158E-17, 0.5318172400785777798 ) ) ;
#8 = CARTESIAN_POINT ( 'NONE',  ( 0.0000000000000000000, 0.0000000000000000000, 0.0000000000000000000 ) ) ;
#9 = DIRECTION ( 'NONE',  ( 3.491481338843133355E-15, -1.224646799147353207E-16, 1.000000000000000000 ) ) ;
#10 = AXIS2_PLACEMENT_3D ( 'NONE', #159, #203, #29 ) ;
#11 = DATE_AND_TIME ( #149, #152 ) ;
#12 = ORIENTED_EDGE ( 'NONE', *, *, #148, .F. ) ;
#13 = CC_DESIGN_PERSON_AND_ORGANIZATION_ASSIGNMENT ( #230, #255, ( #173 ) ) ;
#14 = ORIENTED_EDGE ( 'NONE', *, *, #141, .F. ) ;
#15 = CALENDAR_DATE ( 2021, 16, 12 ) ;
#16 = EDGE_LOOP ( 'NONE', ( #84 ) ) ;
#17 = ORIENTED_EDGE ( 'NONE', *, *, #34, .F. ) ;
#18 = CARTESIAN_POINT ( 'NONE',  ( 1.047444401652940007E-13, -3.673940397442059178E-15, 30.00000000000000000 ) ) ;
#19 = AXIS2_PLACEMENT_3D ( 'NONE', #112, #202, #260 ) ;
#20 = DIRECTION ( 'NONE',  ( -4.275831445896958607E-31, -1.000000000000000000, -1.224646799147353207E-16 ) ) ;
#21 = CONICAL_SURFACE ( 'NONE', #193, 0.3624999999999996558, 0.2617993877991427465 ) ;
#22 = EDGE_CURVE ( 'NONE', #163, #163, #208, .T. ) ;
#23 = FACE_OUTER_BOUND ( 'NONE', #125, .T. ) ;
#24 =( NAMED_UNIT ( * ) SI_UNIT ( $, .STERADIAN. ) SOLID_ANGLE_UNIT ( ) );
#25 = CYLINDRICAL_SURFACE ( 'NONE', #237, 0.3624999999999998779 ) ;
#26 = CARTESIAN_POINT ( 'NONE',  ( 0.0000000000000000000, 0.0000000000000000000, 0.0000000000000000000 ) ) ;
#27 = VERTEX_POINT ( 'NONE', #162 ) ;
#28 = AXIS2_PLACEMENT_3D ( 'NONE', #226, #42, #137 ) ;
#29 = DIRECTION ( 'NONE',  ( 0.0000000000000000000, 1.000000000000000000, 0.0000000000000000000 ) ) ;
#30 = CC_DESIGN_APPROVAL ( #273, ( #206 ) ) ;
#31 = APPROVAL_ROLE ( '' ) ;
#32 = APPROVAL_DATE_TIME ( #52, #83 ) ;
#33 = PERSON_AND_ORGANIZATION ( #114, #106 ) ;
#34 = EDGE_CURVE ( 'NONE', #205, #205, #259, .T. ) ;
#35 = EDGE_LOOP ( 'NONE', ( #102 ) ) ;
#36 = COORDINATED_UNIVERSAL_TIME_OFFSET ( 1, 0, .AHEAD. ) ;
#37 = EDGE_LOOP ( 'NONE', ( #105 ) ) ;
#38 = DIRECTION ( 'NONE',  ( -3.491481338843133355E-15, 1.224646799147353207E-16, -1.000000000000000000 ) ) ;
#39 = AXIS2_PLACEMENT_3D ( 'NONE', #65, #87, #120 ) ;
#40 = CARTESIAN_POINT ( 'NONE',  ( 1.856829969409412820E-15, -6.512882807936098158E-17, 0.5318172400785777798 ) ) ;
#41 = CIRCLE ( 'NONE', #76, 0.3795370868554649446 ) ;
#42 = DIRECTION ( 'NONE',  ( 3.491481338843133355E-15, -1.224646799147353207E-16, 1.000000000000000000 ) ) ;
#43 = ADVANCED_FACE ( 'NONE', ( #222 ), #283, .F. ) ;
#44 = FACE_OUTER_BOUND ( 'NONE', #254, .T. ) ;
#45 = ORIENTED_EDGE ( 'NONE', *, *, #134, .T. ) ;
#46 = VERTEX_POINT ( 'NONE', #117 ) ;
#47 = AXIS2_PLACEMENT_3D ( 'NONE', #40, #178, #2 ) ;
#48 = CC_DESIGN_DATE_AND_TIME_ASSIGNMENT ( #250, #234, ( #210 ) ) ;
#49 = COORDINATED_UNIVERSAL_TIME_OFFSET ( 1, 0, .AHEAD. ) ;
#50 = EDGE_LOOP ( 'NONE', ( #17 ) ) ;
#51 = APPROVAL_DATE_TIME ( #146, #273 ) ;
#52 = DATE_AND_TIME ( #174, #116 ) ;
#53 = ORIENTED_EDGE ( 'NONE', *, *, #261, .F. ) ;
#54 = COORDINATED_UNIVERSAL_TIME_OFFSET ( 1, 0, .AHEAD. ) ;
#55 = AXIS2_PLACEMENT_3D ( 'NONE', #115, #211, #6 ) ;
#56 = APPROVAL_ROLE ( '' ) ;
#57 = DIRECTION ( 'NONE',  ( -3.491481338843133355E-15, 1.224646799147353207E-16, -1.000000000000000000 ) ) ;
#58 = DIRECTION ( 'NONE',  ( -3.491481338843133355E-15, 1.224646799147353207E-16, -1.000000000000000000 ) ) ;
#59 = DIRECTION ( 'NONE',  ( 4.275831445896958607E-31, 1.000000000000000000, 1.224646799147353207E-16 ) ) ;
#60 = CC_DESIGN_DATE_AND_TIME_ASSIGNMENT ( #75, #170, ( #206 ) ) ;
#61 = CARTESIAN_POINT ( 'NONE',  ( 0.0000000000000000000, 0.0000000000000000000, 0.0000000000000000000 ) ) ;
#62 = DIRECTION ( 'NONE',  ( -3.491481338843133355E-15, 1.224646799147353207E-16, -1.000000000000000000 ) ) ;
#63 = VERTEX_POINT ( 'NONE', #113 ) ;
#64 =( NAMED_UNIT ( * ) PLANE_ANGLE_UNIT ( ) SI_UNIT ( $, .RADIAN. ) );
#65 = CARTESIAN_POINT ( 'NONE',  ( 0.0000000000000000000, 0.0000000000000000000, 0.0000000000000000000 ) ) ;
#66 = FACE_OUTER_BOUND ( 'NONE', #212, .T. ) ;
#67 = EDGE_CURVE ( 'NONE', #249, #249, #41, .T. ) ;
#68 = PRODUCT ( '986884', '986884', '', ( #281 ) ) ;
#69 = AXIS2_PLACEMENT_3D ( 'NONE', #266, #110, #4 ) ;
#70 = FACE_BOUND ( 'NONE', #197, .T. ) ;
#71 = EDGE_LOOP ( 'NONE', ( #53 ) ) ;
#72 = ADVANCED_FACE ( 'NONE', ( #23, #200 ), #109, .F. ) ;
#73 = APPROVAL_PERSON_ORGANIZATION ( #172, #83, #56 ) ;
#74 = APPROVAL_STATUS ( 'not_yet_approved' ) ;
#75 = DATE_AND_TIME ( #235, #132 ) ;
#76 = AXIS2_PLACEMENT_3D ( 'NONE', #177, #156, #220 ) ;
#77 = PERSON_AND_ORGANIZATION ( #114, #106 ) ;
#78 = EDGE_LOOP ( 'NONE', ( #129 ) ) ;
#79 = PERSON_AND_ORGANIZATION_ROLE ( 'design_owner' ) ;
#80 = ORIENTED_EDGE ( 'NONE', *, *, #22, .F. ) ;
#81 = DIRECTION ( 'NONE',  ( 0.0000000000000000000, 1.000000000000000000, 0.0000000000000000000 ) ) ;
#82 = FACE_BOUND ( 'NONE', #37, .T. ) ;
#83 = APPROVAL ( #274, 'UNSPECIFIED' ) ;
#84 = ORIENTED_EDGE ( 'NONE', *, *, #240, .F. ) ;
#85 = PLANE ( 'NONE',  #241 ) ;
#86 = CARTESIAN_POINT ( 'NONE',  ( 1.396592535537253342E-14, -4.898587196589412829E-16, 4.000000000000000000 ) ) ;
#87 = DIRECTION ( 'NONE',  ( 0.0000000000000000000, 0.0000000000000000000, 1.000000000000000000 ) ) ;
#88 = DIRECTION ( 'NONE',  ( -3.491481338843133355E-15, 1.224646799147353207E-16, -1.000000000000000000 ) ) ;
#89 = AXIS2_PLACEMENT_3D ( 'NONE', #224, #244, #199 ) ;
#90 = VERTEX_POINT ( 'NONE', #229 ) ;
#91 = ADVANCED_FACE ( 'NONE', ( #44 ), #201, .F. ) ;
#92 = VERTEX_POINT ( 'NONE', #188 ) ;
#93 = FACE_OUTER_BOUND ( 'NONE', #147, .T. ) ;
#94 = APPLICATION_CONTEXT ( 'configuration controlled 3d designs of mechanical parts and assemblies' ) ;
#95 = CLOSED_SHELL ( 'NONE', ( #43, #270, #228, #204 ) ) ;
#96 = APPLICATION_CONTEXT ( 'configuration controlled 3d designs of mechanical parts and assemblies' ) ;
#97 = PERSON_AND_ORGANIZATION ( #114, #106 ) ;
#98 = ORIENTED_EDGE ( 'NONE', *, *, #141, .T. ) ;
#99 = CIRCLE ( 'NONE', #55, 0.7499999999999998890 ) ;
#100 = APPROVAL_STATUS ( 'not_yet_approved' ) ;
#101 = ORIENTED_EDGE ( 'NONE', *, *, #134, .F. ) ;
#102 = ORIENTED_EDGE ( 'NONE', *, *, #148, .T. ) ;
#103 = CLOSED_SHELL ( 'NONE', ( #91, #247, #72, #160, #213, #181, #194 ) ) ;
#104 = CC_DESIGN_PERSON_AND_ORGANIZATION_ASSIGNMENT ( #124, #145, ( #210 ) ) ;
#105 = ORIENTED_EDGE ( 'NONE', *, *, #34, .T. ) ;
#106 = ORGANIZATION ( 'UNSPECIFIED', 'UNSPECIFIED', '' ) ;
#107 = CARTESIAN_POINT ( 'NONE',  ( 1.047444401652940007E-13, -3.673940397442059178E-15, 30.00000000000000000 ) ) ;
#108 = CARTESIAN_POINT ( 'NONE',  ( 1.623538822562057326E-14, -5.694607616035192869E-16, 4.650000000000000355 ) ) ;
#109 = TOROIDAL_SURFACE ( 'NONE', #19, 0.8625000000000000444, 0.5000000000000000000 ) ;
#110 = DIRECTION ( 'NONE',  ( 3.491481338843133355E-15, -1.224646799147353207E-16, 1.000000000000000000 ) ) ;
#111 = FACE_OUTER_BOUND ( 'NONE', #16, .T. ) ;
#112 = CARTESIAN_POINT ( 'NONE',  ( 1.623538822562057326E-14, -5.421010862427522170E-16, 4.650000000000000355 ) ) ;
#113 = CARTESIAN_POINT ( 'NONE',  ( 1.042207179644675275E-13, 0.7499999999999962252, 29.84999999999999787 ) ) ;
#114 = PERSON ( 'UNSPECIFIED', 'UNSPECIFIED', 'UNSPECIFIED', ('UNSPECIFIED'), ('UNSPECIFIED'), ('UNSPECIFIED') ) ;
#115 = CARTESIAN_POINT ( 'NONE',  ( 1.042207179644675275E-13, -3.655570695454848748E-15, 29.84999999999999787 ) ) ;
#116 = LOCAL_TIME ( 9, 57, 35.00000000000000000, #54 ) ;
#117 = CARTESIAN_POINT ( 'NONE',  ( 4.731839565957903391E-32, 0.2200000000000000289, 1.355252715606880543E-17 ) ) ;
#118 = CC_DESIGN_PERSON_AND_ORGANIZATION_ASSIGNMENT ( #280, #166, ( #173 ) ) ;
#119 = AXIS2_PLACEMENT_3D ( 'NONE', #86, #38, #133 ) ;
#120 = DIRECTION ( 'NONE',  ( 1.000000000000000000, 0.0000000000000000000, 0.0000000000000000000 ) ) ;
#121 = DIRECTION ( 'NONE',  ( 4.275831445896958607E-31, 1.000000000000000000, 1.224646799147353454E-16 ) ) ;
#122 = APPROVAL_PERSON_ORGANIZATION ( #33, #221, #257 ) ;
#123 = SHAPE_DEFINITION_REPRESENTATION ( #144, #276 ) ;
#124 = PERSON_AND_ORGANIZATION ( #114, #106 ) ;
#125 = EDGE_LOOP ( 'NONE', ( #80 ) ) ;
#126 = APPLICATION_PROTOCOL_DEFINITION ( 'international standard', 'config_control_design', 1994, #96 ) ;
#127 = CC_DESIGN_PERSON_AND_ORGANIZATION_ASSIGNMENT ( #77, #79, ( #68 ) ) ;
#128 = COORDINATED_UNIVERSAL_TIME_OFFSET ( 1, 0, .AHEAD. ) ;
#129 = ORIENTED_EDGE ( 'NONE', *, *, #240, .T. ) ;
#130 = AXIS2_PLACEMENT_3D ( 'NONE', #262, #154, #238 ) ;
#131 = ORIENTED_EDGE ( 'NONE', *, *, #157, .T. ) ;
#132 = LOCAL_TIME ( 9, 57, 35.00000000000000000, #36 ) ;
#133 = DIRECTION ( 'NONE',  ( 0.0000000000000000000, 1.000000000000000000, 0.0000000000000000000 ) ) ;
#134 = EDGE_CURVE ( 'NONE', #268, #268, #136, .T. ) ;
#135 = PLANE ( 'NONE',  #28 ) ;
#136 = CIRCLE ( 'NONE', #47, 0.3624999999999996558 ) ;
#137 = DIRECTION ( 'NONE',  ( -4.275831445896958607E-31, -1.000000000000000000, -1.224646799147353207E-16 ) ) ;
#138 = FACE_BOUND ( 'NONE', #171, .T. ) ;
#139 = FACE_OUTER_BOUND ( 'NONE', #192, .T. ) ;
#140 = CARTESIAN_POINT ( 'NONE',  ( 1.668721915867688301E-14, 0.3795370868554643340, 4.779409522551257616 ) ) ;
#141 = EDGE_CURVE ( 'NONE', #90, #90, #269, .T. ) ;
#142 = DIRECTION ( 'NONE',  ( -3.491481338843133355E-15, 1.224646799147353207E-16, -1.000000000000000000 ) ) ;
#143 = CIRCLE ( 'NONE', #10, 0.7499999999999971134 ) ;
#144 = PRODUCT_DEFINITION_SHAPE ( 'NONE', 'NONE',  #210 ) ;
#145 = PERSON_AND_ORGANIZATION_ROLE ( 'creator' ) ;
#146 = DATE_AND_TIME ( #191, #223 ) ;
#147 = EDGE_LOOP ( 'NONE', ( #101 ) ) ;
#148 = EDGE_CURVE ( 'NONE', #92, #92, #186, .T. ) ;
#149 = CALENDAR_DATE ( 2021, 16, 12 ) ;
#150 = EDGE_LOOP ( 'NONE', ( #256 ) ) ;
#151 = DIRECTION ( 'NONE',  ( 3.491481338843133355E-15, -1.224646799147353207E-16, 1.000000000000000000 ) ) ;
#152 = LOCAL_TIME ( 9, 57, 35.00000000000000000, #168 ) ;
#153 = FACE_OUTER_BOUND ( 'NONE', #50, .T. ) ;
#154 = DIRECTION ( 'NONE',  ( -3.491481338843133355E-15, 1.224646799147353207E-16, -1.000000000000000000 ) ) ;
#155 = AXIS2_PLACEMENT_3D ( 'NONE', #18, #58, #158 ) ;
#156 = DIRECTION ( 'NONE',  ( -3.491481338843133355E-15, 1.224646799147353207E-16, -1.000000000000000000 ) ) ;
#157 = EDGE_CURVE ( 'NONE', #46, #46, #3, .T. ) ;
#158 = DIRECTION ( 'NONE',  ( 0.0000000000000000000, 1.000000000000000000, 0.0000000000000000000 ) ) ;
#159 = CARTESIAN_POINT ( 'NONE',  ( 2.151449382310836436E-14, -7.546268600271306726E-16, 6.161995936726665235 ) ) ;
#160 = ADVANCED_FACE ( 'NONE', ( #138, #242 ), #182, .T. ) ;
#161 = CARTESIAN_POINT ( 'NONE',  ( 1.047444401652940007E-13, 0.5999999999999963141, 30.00000000000000000 ) ) ;
#162 = CARTESIAN_POINT ( 'NONE',  ( 2.151449382310836436E-14, 0.7499999999999963363, 6.161995936726665235 ) ) ;
#163 = VERTEX_POINT ( 'NONE', #248 ) ;
#164 = MANIFOLD_SOLID_BREP ( 'Corps-Déplacer/Copier1[1]', #103 ) ;
#165 = CYLINDRICAL_SURFACE ( 'NONE', #189, 0.3625000000000001554 ) ;
#166 = PERSON_AND_ORGANIZATION_ROLE ( 'design_supplier' ) ;
#167 = ORIENTED_EDGE ( 'NONE', *, *, #157, .F. ) ;
#168 = COORDINATED_UNIVERSAL_TIME_OFFSET ( 1, 0, .AHEAD. ) ;
#169 = AXIS2_PLACEMENT_3D ( 'NONE', #218, #263, #179 ) ;
#170 = DATE_TIME_ROLE ( 'classification_date' ) ;
#171 = EDGE_LOOP ( 'NONE', ( #277 ) ) ;
#172 = PERSON_AND_ORGANIZATION ( #114, #106 ) ;
#173 = PRODUCT_DEFINITION_FORMATION_WITH_SPECIFIED_SOURCE ( 'ANY', '', #68, .NOT_KNOWN. ) ;
#174 = CALENDAR_DATE ( 2021, 16, 12 ) ;
#175 = EDGE_LOOP ( 'NONE', ( #215 ) ) ;
#176 = DESIGN_CONTEXT ( 'detailed design', #96, 'design' ) ;
#177 = CARTESIAN_POINT ( 'NONE',  ( 1.668721915867688301E-14, -5.853088573606777450E-16, 4.779409522551257616 ) ) ;
#178 = DIRECTION ( 'NONE',  ( -3.491481338843133355E-15, 1.224646799147353207E-16, -1.000000000000000000 ) ) ;
#179 = DIRECTION ( 'NONE',  ( 0.0000000000000000000, -1.000000000000000000, 0.0000000000000000000 ) ) ;
#180 = FACE_OUTER_BOUND ( 'NONE', #214, .T. ) ;
#181 = ADVANCED_FACE ( 'NONE', ( #183, #82 ), #279, .T. ) ;
#182 = CONICAL_SURFACE ( 'NONE', #169, 0.7499999999999971134, 0.2617993877991426910 ) ;
#183 = FACE_OUTER_BOUND ( 'NONE', #71, .T. ) ;
#184 = CARTESIAN_POINT ( 'NONE',  ( 1.856829969409412820E-15, 0.3624999999999996003, 0.5318172400785777798 ) ) ;
#185 = FACE_OUTER_BOUND ( 'NONE', #275, .T. ) ;
#186 = CIRCLE ( 'NONE', #119, 0.3625000000000000999 ) ;
#187 = APPLICATION_PROTOCOL_DEFINITION ( 'international standard', 'config_control_design', 1994, #94 ) ;
#188 = CARTESIAN_POINT ( 'NONE',  ( 1.396592535537253342E-14, 0.3624999999999996003, 4.000000000000000000 ) ) ;
#189 = AXIS2_PLACEMENT_3D ( 'NONE', #8, #88, #190 ) ;
#190 = DIRECTION ( 'NONE',  ( 4.275831445896958607E-31, 1.000000000000000000, 1.224646799147352961E-16 ) ) ;
#191 = CALENDAR_DATE ( 2021, 16, 12 ) ;
#192 = EDGE_LOOP ( 'NONE', ( #12 ) ) ;
#193 = AXIS2_PLACEMENT_3D ( 'NONE', #7, #9, #267 ) ;
#194 = ADVANCED_FACE ( 'NONE', ( #153 ), #85, .F. ) ;
#195 = AXIS2_PLACEMENT_3D ( 'NONE', #61, #142, #121 ) ;
#196 = EDGE_LOOP ( 'NONE', ( #131 ) ) ;
#197 = EDGE_LOOP ( 'NONE', ( #167 ) ) ;
#198 = CC_DESIGN_APPROVAL ( #221, ( #173 ) ) ;
#199 = DIRECTION ( 'NONE',  ( 4.275831445896958607E-31, 1.000000000000000000, 1.224646799147353207E-16 ) ) ;
#200 = FACE_OUTER_BOUND ( 'NONE', #175, .T. ) ;
#201 = PLANE ( 'NONE',  #264 ) ;
#202 = DIRECTION ( 'NONE',  ( -3.491481338843133355E-15, 1.224646799147353207E-16, -1.000000000000000000 ) ) ;
#203 = DIRECTION ( 'NONE',  ( -3.491481338843133355E-15, 1.224646799147353207E-16, -1.000000000000000000 ) ) ;
#204 = ADVANCED_FACE ( 'NONE', ( #139 ), #135, .T. ) ;
#205 = VERTEX_POINT ( 'NONE', #161 ) ;
#206 = SECURITY_CLASSIFICATION ( '', '', #236 ) ;
#207 =( LENGTH_UNIT ( ) NAMED_UNIT ( * ) SI_UNIT ( .MILLI., .METRE. ) );
#208 = CIRCLE ( 'NONE', #219, 0.3625000000000002109 ) ;
#209 = FACE_OUTER_BOUND ( 'NONE', #35, .T. ) ;
#210 = PRODUCT_DEFINITION ( 'UNKNOWN', '', #173, #176 ) ;
#211 = DIRECTION ( 'NONE',  ( -3.491481338843133355E-15, 1.224646799147353207E-16, -1.000000000000000000 ) ) ;
#212 = EDGE_LOOP ( 'NONE', ( #14 ) ) ;
#213 = ADVANCED_FACE ( 'NONE', ( #111, #180 ), #265, .T. ) ;
#214 = EDGE_LOOP ( 'NONE', ( #216 ) ) ;
#215 = ORIENTED_EDGE ( 'NONE', *, *, #67, .T. ) ;
#216 = ORIENTED_EDGE ( 'NONE', *, *, #261, .T. ) ;
#217 = APPROVAL_PERSON_ORGANIZATION ( #253, #273, #31 ) ;
#218 = CARTESIAN_POINT ( 'NONE',  ( 2.151449382310836436E-14, -7.546268600271306726E-16, 6.161995936726665235 ) ) ;
#219 = AXIS2_PLACEMENT_3D ( 'NONE', #108, #282, #81 ) ;
#220 = DIRECTION ( 'NONE',  ( 0.0000000000000000000, 1.000000000000000000, 0.0000000000000000000 ) ) ;
#221 = APPROVAL ( #100, 'UNSPECIFIED' ) ;
#222 = FACE_OUTER_BOUND ( 'NONE', #196, .T. ) ;
#223 = LOCAL_TIME ( 9, 57, 35.00000000000000000, #128 ) ;
#224 = CARTESIAN_POINT ( 'NONE',  ( -4.674989615015406441E-32, 1.639765621652362727E-33, -1.338970242517296865E-17 ) ) ;
#225 = PRODUCT_RELATED_PRODUCT_CATEGORY ( 'detail', '', ( #68 ) ) ;
#226 = CARTESIAN_POINT ( 'NONE',  ( 1.396592535537253342E-14, 2.718314606074610414E-33, 4.000000000000000000 ) ) ;
#227 = UNCERTAINTY_MEASURE_WITH_UNIT (LENGTH_MEASURE( 1.000000000000000082E-05 ), #207, 'distance_accuracy_value', 'NONE');
#228 = ADVANCED_FACE ( 'NONE', ( #93, #209 ), #25, .T. ) ;
#229 = CARTESIAN_POINT ( 'NONE',  ( 1.396592535537253342E-14, 0.3624999999999996003, 4.000000000000000000 ) ) ;
#230 = PERSON_AND_ORGANIZATION ( #114, #106 ) ;
#231 =( GEOMETRIC_REPRESENTATION_CONTEXT ( 3 ) GLOBAL_UNCERTAINTY_ASSIGNED_CONTEXT ( ( #227 ) ) GLOBAL_UNIT_ASSIGNED_CONTEXT ( ( #207, #64, #24 ) ) REPRESENTATION_CONTEXT ( 'NONE', 'WORKASPACE' ) );
#232 = APPROVAL_DATE_TIME ( #11, #221 ) ;
#233 = AXIS2_PLACEMENT_3D ( 'NONE', #107, #57, #243 ) ;
#234 = DATE_TIME_ROLE ( 'creation_date' ) ;
#235 = CALENDAR_DATE ( 2021, 16, 12 ) ;
#236 = SECURITY_CLASSIFICATION_LEVEL ( 'unclassified' ) ;
#237 = AXIS2_PLACEMENT_3D ( 'NONE', #26, #245, #246 ) ;
#238 = DIRECTION ( 'NONE',  ( 0.0000000000000000000, 1.000000000000000000, 0.0000000000000000000 ) ) ;
#239 = CARTESIAN_POINT ( 'NONE',  ( 1.047444401652940007E-13, 4.499279347985518085E-33, 30.00000000000000000 ) ) ;
#240 = EDGE_CURVE ( 'NONE', #27, #27, #143, .T. ) ;
#241 = AXIS2_PLACEMENT_3D ( 'NONE', #239, #62, #59 ) ;
#242 = FACE_OUTER_BOUND ( 'NONE', #78, .T. ) ;
#243 = DIRECTION ( 'NONE',  ( 0.0000000000000000000, 1.000000000000000000, 0.0000000000000000000 ) ) ;
#244 = DIRECTION ( 'NONE',  ( -3.491481338843133355E-15, 1.224646799147353207E-16, -1.000000000000000000 ) ) ;
#245 = DIRECTION ( 'NONE',  ( -3.491481338843133355E-15, 1.224646799147353207E-16, -1.000000000000000000 ) ) ;
#246 = DIRECTION ( 'NONE',  ( 4.275831445896958607E-31, 1.000000000000000000, 1.224646799147353207E-16 ) ) ;
#247 = ADVANCED_FACE ( 'NONE', ( #66, #272 ), #165, .T. ) ;
#248 = CARTESIAN_POINT ( 'NONE',  ( 1.623538822562057326E-14, 0.3624999999999996003, 4.650000000000000355 ) ) ;
#249 = VERTEX_POINT ( 'NONE', #140 ) ;
#250 = DATE_AND_TIME ( #15, #278 ) ;
#251 = CC_DESIGN_APPROVAL ( #83, ( #210 ) ) ;
#252 = PERSON_AND_ORGANIZATION_ROLE ( 'classification_officer' ) ;
#253 = PERSON_AND_ORGANIZATION ( #114, #106 ) ;
#254 = EDGE_LOOP ( 'NONE', ( #98 ) ) ;
#255 = PERSON_AND_ORGANIZATION_ROLE ( 'creator' ) ;
#256 = ORIENTED_EDGE ( 'NONE', *, *, #22, .T. ) ;
#257 = APPROVAL_ROLE ( '' ) ;
#258 = MANIFOLD_SOLID_BREP ( 'Corps-Déplacer/Copier1[2]', #95 ) ;
#259 = CIRCLE ( 'NONE', #233, 0.6000000000000000888 ) ;
#260 = DIRECTION ( 'NONE',  ( 4.275831445896958607E-31, 1.000000000000000000, 1.224646799147353207E-16 ) ) ;
#261 = EDGE_CURVE ( 'NONE', #63, #63, #99, .T. ) ;
#262 = CARTESIAN_POINT ( 'NONE',  ( 1.396592535537253342E-14, -4.898587196589412829E-16, 4.000000000000000000 ) ) ;
#263 = DIRECTION ( 'NONE',  ( 3.491481338843133355E-15, -1.224646799147353207E-16, 1.000000000000000000 ) ) ;
#264 = AXIS2_PLACEMENT_3D ( 'NONE', #1, #151, #20 ) ;
#265 = CYLINDRICAL_SURFACE ( 'NONE', #195, 0.7499999999999984457 ) ;
#266 = CARTESIAN_POINT ( 'NONE',  ( -2.337494807507703221E-32, 8.198828108261813636E-34, -6.694851212586484323E-18 ) ) ;
#267 = DIRECTION ( 'NONE',  ( 0.0000000000000000000, -1.000000000000000000, 0.0000000000000000000 ) ) ;
#268 = VERTEX_POINT ( 'NONE', #184 ) ;
#269 = CIRCLE ( 'NONE', #130, 0.3625000000000000999 ) ;
#270 = ADVANCED_FACE ( 'NONE', ( #70, #185 ), #21, .T. ) ;
#271 = CC_DESIGN_SECURITY_CLASSIFICATION ( #206, ( #173 ) ) ;
#272 = FACE_OUTER_BOUND ( 'NONE', #150, .T. ) ;
#273 = APPROVAL ( #74, 'UNSPECIFIED' ) ;
#274 = APPROVAL_STATUS ( 'not_yet_approved' ) ;
#275 = EDGE_LOOP ( 'NONE', ( #45 ) ) ;
#276 = ADVANCED_BREP_SHAPE_REPRESENTATION ( '986884', ( #164, #258, #39 ), #231 ) ;
#277 = ORIENTED_EDGE ( 'NONE', *, *, #67, .F. ) ;
#278 = LOCAL_TIME ( 9, 57, 35.00000000000000000, #49 ) ;
#279 = CONICAL_SURFACE ( 'NONE', #155, 0.6000000000000000888, 0.7853981633974450594 ) ;
#280 = PERSON_AND_ORGANIZATION ( #114, #106 ) ;
#281 = MECHANICAL_CONTEXT ( 'NONE', #94, 'mechanical' ) ;
#282 = DIRECTION ( 'NONE',  ( -3.491481338843133355E-15, 1.224646799147353207E-16, -1.000000000000000000 ) ) ;
#283 = PLANE ( 'NONE',  #69 ) ;
ENDSEC;
END-ISO-10303-21;
