ISO-10303-21;
HEADER;
FILE_DESCRIPTION (( 'STEP AP203' ),
    '1' );
FILE_NAME ('986883.step',
    '2021-12-16T08:57:35',
    ( '' ),
    ( '' ),
    'SwSTEP 2.0',
    'SolidWorks 2019',
    '' );
FILE_SCHEMA (( 'CONFIG_CONTROL_DESIGN' ));
ENDSEC;

DATA;
#1 = CALENDAR_DATE ( 2021, 16, 12 ) ;
#2 = PERSON ( 'UNSPECIFIED', 'UNSPECIFIED', 'UNSPECIFIED', ('UNSPECIFIED'), ('UNSPECIFIED'), ('UNSPECIFIED') ) ;
#3 = PERSON_AND_ORGANIZATION ( #2, #135 ) ;
#4 = ORIENTED_EDGE ( 'NONE', *, *, #207, .F. ) ;
#5 = AXIS2_PLACEMENT_3D ( 'NONE', #258, #213, #133 ) ;
#6 = PERSON_AND_ORGANIZATION ( #2, #135 ) ;
#7 = FACE_OUTER_BOUND ( 'NONE', #183, .T. ) ;
#8 = CC_DESIGN_PERSON_AND_ORGANIZATION_ASSIGNMENT ( #110, #282, ( #231 ) ) ;
#9 = DIRECTION ( 'NONE',  ( 4.275831445896958607E-31, 1.000000000000000000, 1.224646799147353207E-16 ) ) ;
#10 = APPROVAL_PERSON_ORGANIZATION ( #204, #88, #206 ) ;
#11 = CALENDAR_DATE ( 2021, 16, 12 ) ;
#12 = ORIENTED_EDGE ( 'NONE', *, *, #28, .F. ) ;
#13 = EDGE_LOOP ( 'NONE', ( #4 ) ) ;
#14 = CARTESIAN_POINT ( 'NONE',  ( 1.047444401652940007E-13, -3.673940397442059178E-15, 30.00000000000000000 ) ) ;
#15 = DIRECTION ( 'NONE',  ( -3.491481338843133355E-15, 1.224646799147353207E-16, -1.000000000000000000 ) ) ;
#16 = CARTESIAN_POINT ( 'NONE',  ( 0.0000000000000000000, 0.0000000000000000000, 0.0000000000000000000 ) ) ;
#17 = ADVANCED_FACE ( 'NONE', ( #223, #7 ), #141, .T. ) ;
#18 = FACE_OUTER_BOUND ( 'NONE', #221, .T. ) ;
#19 = DIRECTION ( 'NONE',  ( 3.491481338843133355E-15, -1.224646799147353207E-16, 1.000000000000000000 ) ) ;
#20 = DIRECTION ( 'NONE',  ( 1.000000000000000000, 0.0000000000000000000, 0.0000000000000000000 ) ) ;
#21 = LOCAL_TIME ( 9, 57, 35.00000000000000000, #156 ) ;
#22 = APPROVAL_ROLE ( '' ) ;
#23 = ADVANCED_FACE ( 'NONE', ( #48 ), #97, .F. ) ;
#24 =( NAMED_UNIT ( * ) SI_UNIT ( $, .STERADIAN. ) SOLID_ANGLE_UNIT ( ) );
#25 = DIRECTION ( 'NONE',  ( 4.275831445896958607E-31, 1.000000000000000000, 1.224646799147353454E-16 ) ) ;
#26 = DATE_TIME_ROLE ( 'creation_date' ) ;
#27 = ORIENTED_EDGE ( 'NONE', *, *, #152, .T. ) ;
#28 = EDGE_CURVE ( 'NONE', #280, #280, #52, .T. ) ;
#29 = APPROVAL_STATUS ( 'not_yet_approved' ) ;
#30 = LOCAL_TIME ( 9, 57, 35.00000000000000000, #155 ) ;
#31 = DIRECTION ( 'NONE',  ( 0.0000000000000000000, -1.000000000000000000, 0.0000000000000000000 ) ) ;
#32 = APPLICATION_CONTEXT ( 'configuration controlled 3d designs of mechanical parts and assemblies' ) ;
#33 = EDGE_LOOP ( 'NONE', ( #27 ) ) ;
#34 = AXIS2_PLACEMENT_3D ( 'NONE', #181, #208, #78 ) ;
#35 = DIRECTION ( 'NONE',  ( -3.491481338843133355E-15, 1.224646799147353207E-16, -1.000000000000000000 ) ) ;
#36 = CARTESIAN_POINT ( 'NONE',  ( 8.728703347107833388E-15, 1.563499573424982711E-33, 2.500000000000000000 ) ) ;
#37 = DIRECTION ( 'NONE',  ( 0.0000000000000000000, 1.000000000000000000, 0.0000000000000000000 ) ) ;
#38 = CYLINDRICAL_SURFACE ( 'NONE', #278, 0.2085000000000000742 ) ;
#39 = AXIS2_PLACEMENT_3D ( 'NONE', #269, #70, #20 ) ;
#40 = FACE_OUTER_BOUND ( 'NONE', #232, .T. ) ;
#41 = DATE_AND_TIME ( #240, #30 ) ;
#42 = APPROVAL_STATUS ( 'not_yet_approved' ) ;
#43 = CIRCLE ( 'NONE', #252, 0.2085000000000000464 ) ;
#44 = AXIS2_PLACEMENT_3D ( 'NONE', #184, #107, #37 ) ;
#45 = VERTEX_POINT ( 'NONE', #47 ) ;
#46 = DIRECTION ( 'NONE',  ( -3.491481338843133355E-15, 1.224646799147353207E-16, -1.000000000000000000 ) ) ;
#47 = CARTESIAN_POINT ( 'NONE',  ( 8.728703347107833388E-15, 0.2084999999999997689, 2.500000000000000000 ) ) ;
#48 = FACE_OUTER_BOUND ( 'NONE', #136, .T. ) ;
#49 = EDGE_CURVE ( 'NONE', #260, #260, #176, .T. ) ;
#50 = COORDINATED_UNIVERSAL_TIME_OFFSET ( 1, 0, .AHEAD. ) ;
#51 = DIRECTION ( 'NONE',  ( -3.491481338843133355E-15, 1.224646799147353207E-16, -1.000000000000000000 ) ) ;
#52 = CIRCLE ( 'NONE', #247, 0.2255370868554653352 ) ;
#53 = AXIS2_PLACEMENT_3D ( 'NONE', #270, #228, #31 ) ;
#54 = DATE_TIME_ROLE ( 'classification_date' ) ;
#55 = DIRECTION ( 'NONE',  ( 0.0000000000000000000, 1.000000000000000000, 0.0000000000000000000 ) ) ;
#56 = SHAPE_DEFINITION_REPRESENTATION ( #201, #193 ) ;
#57 = ORIENTED_EDGE ( 'NONE', *, *, #152, .F. ) ;
#58 = EDGE_CURVE ( 'NONE', #172, #172, #283, .T. ) ;
#59 = DIRECTION ( 'NONE',  ( 3.491481338843133355E-15, -1.224646799147353207E-16, 1.000000000000000000 ) ) ;
#60 = FACE_OUTER_BOUND ( 'NONE', #163, .T. ) ;
#61 = FACE_OUTER_BOUND ( 'NONE', #115, .T. ) ;
#62 = CARTESIAN_POINT ( 'NONE',  ( 1.810937715343869651E-14, 0.7499999999999963363, 5.186731761092285176 ) ) ;
#63 = ADVANCED_FACE ( 'NONE', ( #122 ), #121, .F. ) ;
#64 = DIRECTION ( 'NONE',  ( -3.491481338843133355E-15, 1.224646799147353207E-16, -1.000000000000000000 ) ) ;
#65 = AXIS2_PLACEMENT_3D ( 'NONE', #125, #15, #236 ) ;
#66 = CARTESIAN_POINT ( 'NONE',  ( 1.082359215041371340E-14, 0.2084999999999997689, 3.100000000000000089 ) ) ;
#67 = DATE_AND_TIME ( #160, #21 ) ;
#68 = DIRECTION ( 'NONE',  ( 0.0000000000000000000, 1.000000000000000000, 0.0000000000000000000 ) ) ;
#69 =( GEOMETRIC_REPRESENTATION_CONTEXT ( 3 ) GLOBAL_UNCERTAINTY_ASSIGNED_CONTEXT ( ( #249 ) ) GLOBAL_UNIT_ASSIGNED_CONTEXT ( ( #220, #218, #24 ) ) REPRESENTATION_CONTEXT ( 'NONE', 'WORKASPACE' ) );
#70 = DIRECTION ( 'NONE',  ( 0.0000000000000000000, 0.0000000000000000000, 1.000000000000000000 ) ) ;
#71 = ADVANCED_FACE ( 'NONE', ( #164, #142 ), #253, .T. ) ;
#72 = ORIENTED_EDGE ( 'NONE', *, *, #49, .T. ) ;
#73 = MANIFOLD_SOLID_BREP ( 'Corps-Déplacer/Copier1[1]', #211 ) ;
#74 = DIRECTION ( 'NONE',  ( -3.491481338843133355E-15, 1.224646799147353207E-16, -1.000000000000000000 ) ) ;
#75 = CIRCLE ( 'NONE', #147, 0.2084999999999997689 ) ;
#76 = AXIS2_PLACEMENT_3D ( 'NONE', #254, #237, #148 ) ;
#77 = EDGE_CURVE ( 'NONE', #239, #239, #43, .T. ) ;
#78 = DIRECTION ( 'NONE',  ( -4.275831445896958607E-31, -1.000000000000000000, -1.224646799147353207E-16 ) ) ;
#79 = CIRCLE ( 'NONE', #118, 0.7499999999999998890 ) ;
#80 = ORIENTED_EDGE ( 'NONE', *, *, #127, .T. ) ;
#81 = EDGE_CURVE ( 'NONE', #137, #137, #219, .T. ) ;
#82 = DIRECTION ( 'NONE',  ( 0.0000000000000000000, 1.000000000000000000, 0.0000000000000000000 ) ) ;
#83 = DIRECTION ( 'NONE',  ( -3.491481338843133355E-15, 1.224646799147353207E-16, -1.000000000000000000 ) ) ;
#84 = CLOSED_SHELL ( 'NONE', ( #63, #165, #250, #233 ) ) ;
#85 = DIRECTION ( 'NONE',  ( -3.491481338843133355E-15, 1.224646799147353207E-16, -1.000000000000000000 ) ) ;
#86 = APPROVAL_PERSON_ORGANIZATION ( #134, #114, #22 ) ;
#87 = CARTESIAN_POINT ( 'NONE',  ( 1.022885281393957258E-15, -3.587798599459534481E-17, 0.2929659883941638787 ) ) ;
#88 = APPROVAL ( #29, 'UNSPECIFIED' ) ;
#89 = CARTESIAN_POINT ( 'NONE',  ( 1.082359215041371340E-14, -3.796405077356794918E-16, 3.100000000000000089 ) ) ;
#90 = PERSON_AND_ORGANIZATION ( #2, #135 ) ;
#91 = CC_DESIGN_APPROVAL ( #88, ( #231 ) ) ;
#92 = VERTEX_POINT ( 'NONE', #263 ) ;
#93 = APPROVAL_DATE_TIME ( #173, #114 ) ;
#94 = ORIENTED_EDGE ( 'NONE', *, *, #143, .F. ) ;
#95 = CIRCLE ( 'NONE', #76, 0.6000000000000000888 ) ;
#96 = ADVANCED_FACE ( 'NONE', ( #149, #60 ), #38, .T. ) ;
#97 = PLANE ( 'NONE',  #273 ) ;
#98 = COORDINATED_UNIVERSAL_TIME_OFFSET ( 1, 0, .AHEAD. ) ;
#99 = CARTESIAN_POINT ( 'NONE',  ( 1.810937715343869651E-14, -6.351914449257581400E-16, 5.186731761092285176 ) ) ;
#100 = CC_DESIGN_APPROVAL ( #114, ( #189 ) ) ;
#101 = ADVANCED_FACE ( 'NONE', ( #169 ), #216, .F. ) ;
#102 = CARTESIAN_POINT ( 'NONE',  ( 1.127542308347002789E-14, -3.954886034928379498E-16, 3.229409522551257350 ) ) ;
#103 = CC_DESIGN_PERSON_AND_ORGANIZATION_ASSIGNMENT ( #90, #224, ( #210 ) ) ;
#104 = CC_DESIGN_APPROVAL ( #192, ( #210 ) ) ;
#105 = ORIENTED_EDGE ( 'NONE', *, *, #77, .F. ) ;
#106 = DIRECTION ( 'NONE',  ( 0.0000000000000000000, 1.000000000000000000, 0.0000000000000000000 ) ) ;
#107 = DIRECTION ( 'NONE',  ( -3.491481338843133355E-15, 1.224646799147353207E-16, -1.000000000000000000 ) ) ;
#108 = AXIS2_PLACEMENT_3D ( 'NONE', #36, #59, #214 ) ;
#109 = CYLINDRICAL_SURFACE ( 'NONE', #182, 0.2084999999999999076 ) ;
#110 = PERSON_AND_ORGANIZATION ( #2, #135 ) ;
#111 = CONICAL_SURFACE ( 'NONE', #5, 0.2084999999999997689, 0.2617993877991426355 ) ;
#112 = CARTESIAN_POINT ( 'NONE',  ( 1.042207179644675275E-13, 0.7499999999999962252, 29.84999999999999787 ) ) ;
#113 = EDGE_LOOP ( 'NONE', ( #242 ) ) ;
#114 = APPROVAL ( #42, 'UNSPECIFIED' ) ;
#115 = EDGE_LOOP ( 'NONE', ( #105 ) ) ;
#116 = ORIENTED_EDGE ( 'NONE', *, *, #143, .T. ) ;
#117 = AXIS2_PLACEMENT_3D ( 'NONE', #246, #51, #9 ) ;
#118 = AXIS2_PLACEMENT_3D ( 'NONE', #130, #83, #128 ) ;
#119 = CALENDAR_DATE ( 2021, 16, 12 ) ;
#120 = COORDINATED_UNIVERSAL_TIME_OFFSET ( 1, 0, .AHEAD. ) ;
#121 = PLANE ( 'NONE',  #34 ) ;
#122 = FACE_OUTER_BOUND ( 'NONE', #202, .T. ) ;
#123 = APPLICATION_CONTEXT ( 'configuration controlled 3d designs of mechanical parts and assemblies' ) ;
#124 = AXIS2_PLACEMENT_3D ( 'NONE', #99, #167, #55 ) ;
#125 = CARTESIAN_POINT ( 'NONE',  ( 1.082359215041371498E-14, -4.336808689942017736E-16, 3.100000000000000533 ) ) ;
#126 = FACE_OUTER_BOUND ( 'NONE', #205, .T. ) ;
#127 = EDGE_CURVE ( 'NONE', #92, #92, #75, .T. ) ;
#128 = DIRECTION ( 'NONE',  ( 0.0000000000000000000, 1.000000000000000000, 0.0000000000000000000 ) ) ;
#129 = LOCAL_TIME ( 9, 57, 35.00000000000000000, #98 ) ;
#130 = CARTESIAN_POINT ( 'NONE',  ( 1.042207179644675275E-13, -3.655570695454848748E-15, 29.84999999999999787 ) ) ;
#131 = CONICAL_SURFACE ( 'NONE', #195, 0.6000000000000000888, 0.7853981633974450594 ) ;
#132 = ADVANCED_FACE ( 'NONE', ( #40, #171 ), #131, .T. ) ;
#133 = DIRECTION ( 'NONE',  ( 0.0000000000000000000, -1.000000000000000000, 0.0000000000000000000 ) ) ;
#134 = PERSON_AND_ORGANIZATION ( #2, #135 ) ;
#135 = ORGANIZATION ( 'UNSPECIFIED', 'UNSPECIFIED', '' ) ;
#136 = EDGE_LOOP ( 'NONE', ( #57 ) ) ;
#137 = VERTEX_POINT ( 'NONE', #66 ) ;
#138 = CARTESIAN_POINT ( 'NONE',  ( 1.047444401652940007E-13, 4.499279347985518085E-33, 30.00000000000000000 ) ) ;
#139 = VERTEX_POINT ( 'NONE', #112 ) ;
#140 = EDGE_LOOP ( 'NONE', ( #225 ) ) ;
#141 = CONICAL_SURFACE ( 'NONE', #53, 0.7499999999999970024, 0.2617993877991426910 ) ;
#142 = FACE_OUTER_BOUND ( 'NONE', #199, .T. ) ;
#143 = EDGE_CURVE ( 'NONE', #139, #139, #79, .T. ) ;
#144 = APPROVAL_DATE_TIME ( #230, #88 ) ;
#145 = CARTESIAN_POINT ( 'NONE',  ( 0.0000000000000000000, 0.0000000000000000000, 0.0000000000000000000 ) ) ;
#146 = FACE_BOUND ( 'NONE', #113, .T. ) ;
#147 = AXIS2_PLACEMENT_3D ( 'NONE', #87, #64, #82 ) ;
#148 = DIRECTION ( 'NONE',  ( 0.0000000000000000000, 1.000000000000000000, 0.0000000000000000000 ) ) ;
#149 = FACE_OUTER_BOUND ( 'NONE', #13, .T. ) ;
#150 = FACE_OUTER_BOUND ( 'NONE', #159, .T. ) ;
#151 = DESIGN_CONTEXT ( 'detailed design', #32, 'design' ) ;
#152 = EDGE_CURVE ( 'NONE', #243, #243, #95, .T. ) ;
#153 = CARTESIAN_POINT ( 'NONE',  ( 2.365919782978951696E-32, 0.1300000000000000322, 6.776263578034402713E-18 ) ) ;
#154 = PERSON_AND_ORGANIZATION ( #2, #135 ) ;
#155 = COORDINATED_UNIVERSAL_TIME_OFFSET ( 1, 0, .AHEAD. ) ;
#156 = COORDINATED_UNIVERSAL_TIME_OFFSET ( 1, 0, .AHEAD. ) ;
#157 = AXIS2_PLACEMENT_3D ( 'NONE', #187, #19, #276 ) ;
#158 = CC_DESIGN_DATE_AND_TIME_ASSIGNMENT ( #41, #26, ( #210 ) ) ;
#159 = EDGE_LOOP ( 'NONE', ( #209 ) ) ;
#160 = CALENDAR_DATE ( 2021, 16, 12 ) ;
#161 = EDGE_LOOP ( 'NONE', ( #12 ) ) ;
#162 = PERSON_AND_ORGANIZATION ( #2, #135 ) ;
#163 = EDGE_LOOP ( 'NONE', ( #251 ) ) ;
#164 = FACE_OUTER_BOUND ( 'NONE', #179, .T. ) ;
#165 = ADVANCED_FACE ( 'NONE', ( #146, #255 ), #111, .T. ) ;
#166 = APPROVAL_PERSON_ORGANIZATION ( #162, #192, #198 ) ;
#167 = DIRECTION ( 'NONE',  ( -3.491481338843133355E-15, 1.224646799147353207E-16, -1.000000000000000000 ) ) ;
#168 = DIRECTION ( 'NONE',  ( -3.491481338843133355E-15, 1.224646799147353207E-16, -1.000000000000000000 ) ) ;
#169 = FACE_OUTER_BOUND ( 'NONE', #267, .T. ) ;
#170 = DIRECTION ( 'NONE',  ( 4.275831445896958607E-31, 1.000000000000000000, 1.224646799147353207E-16 ) ) ;
#171 = FACE_BOUND ( 'NONE', #33, .T. ) ;
#172 = VERTEX_POINT ( 'NONE', #153 ) ;
#173 = DATE_AND_TIME ( #1, #271 ) ;
#174 = APPLICATION_PROTOCOL_DEFINITION ( 'international standard', 'config_control_design', 1994, #123 ) ;
#175 = CARTESIAN_POINT ( 'NONE',  ( 1.047444401652940007E-13, 0.5999999999999963141, 30.00000000000000000 ) ) ;
#176 = CIRCLE ( 'NONE', #124, 0.7499999999999970024 ) ;
#177 = ORIENTED_EDGE ( 'NONE', *, *, #77, .T. ) ;
#178 = ADVANCED_FACE ( 'NONE', ( #235, #150 ), #227, .F. ) ;
#179 = EDGE_LOOP ( 'NONE', ( #244 ) ) ;
#180 = DATE_AND_TIME ( #119, #262 ) ;
#181 = CARTESIAN_POINT ( 'NONE',  ( -1.596330548343548084E-32, 5.599173836792766820E-34, -4.572072405440596894E-18 ) ) ;
#182 = AXIS2_PLACEMENT_3D ( 'NONE', #16, #85, #170 ) ;
#183 = EDGE_LOOP ( 'NONE', ( #72 ) ) ;
#184 = CARTESIAN_POINT ( 'NONE',  ( 8.728703347107833388E-15, -3.061616997868383141E-16, 2.500000000000000000 ) ) ;
#185 = CC_DESIGN_PERSON_AND_ORGANIZATION_ASSIGNMENT ( #6, #226, ( #189 ) ) ;
#186 = CARTESIAN_POINT ( 'NONE',  ( 0.0000000000000000000, 0.0000000000000000000, 0.0000000000000000000 ) ) ;
#187 = CARTESIAN_POINT ( 'NONE',  ( 8.728703347107833388E-15, 1.563499573424982711E-33, 2.500000000000000000 ) ) ;
#188 = PRODUCT ( '986883', '986883', '', ( #196 ) ) ;
#189 = PRODUCT_DEFINITION_FORMATION_WITH_SPECIFIED_SOURCE ( 'ANY', '', #188, .NOT_KNOWN. ) ;
#190 = CARTESIAN_POINT ( 'NONE',  ( 8.728703347107833388E-15, -3.061616997868383141E-16, 2.500000000000000000 ) ) ;
#191 = DIRECTION ( 'NONE',  ( -3.491481338843133355E-15, 1.224646799147353207E-16, -1.000000000000000000 ) ) ;
#192 = APPROVAL ( #245, 'UNSPECIFIED' ) ;
#193 = ADVANCED_BREP_SHAPE_REPRESENTATION ( '986883', ( #73, #259, #39 ), #69 ) ;
#194 = SECURITY_CLASSIFICATION_LEVEL ( 'unclassified' ) ;
#195 = AXIS2_PLACEMENT_3D ( 'NONE', #14, #168, #212 ) ;
#196 = MECHANICAL_CONTEXT ( 'NONE', #123, 'mechanical' ) ;
#197 = CC_DESIGN_DATE_AND_TIME_ASSIGNMENT ( #180, #54, ( #231 ) ) ;
#198 = APPROVAL_ROLE ( '' ) ;
#199 = EDGE_LOOP ( 'NONE', ( #116 ) ) ;
#200 = PERSON_AND_ORGANIZATION_ROLE ( 'creator' ) ;
#201 = PRODUCT_DEFINITION_SHAPE ( 'NONE', 'NONE',  #210 ) ;
#202 = EDGE_LOOP ( 'NONE', ( #274 ) ) ;
#203 = ORIENTED_EDGE ( 'NONE', *, *, #207, .T. ) ;
#204 = PERSON_AND_ORGANIZATION ( #2, #135 ) ;
#205 = EDGE_LOOP ( 'NONE', ( #268 ) ) ;
#206 = APPROVAL_ROLE ( '' ) ;
#207 = EDGE_CURVE ( 'NONE', #45, #45, #257, .T. ) ;
#208 = DIRECTION ( 'NONE',  ( 3.491481338843133355E-15, -1.224646799147353207E-16, 1.000000000000000000 ) ) ;
#209 = ORIENTED_EDGE ( 'NONE', *, *, #28, .T. ) ;
#210 = PRODUCT_DEFINITION ( 'UNKNOWN', '', #189, #151 ) ;
#211 = CLOSED_SHELL ( 'NONE', ( #101, #96, #178, #17, #71, #132, #23 ) ) ;
#212 = DIRECTION ( 'NONE',  ( 0.0000000000000000000, 1.000000000000000000, 0.0000000000000000000 ) ) ;
#213 = DIRECTION ( 'NONE',  ( 3.491481338843133355E-15, -1.224646799147353207E-16, 1.000000000000000000 ) ) ;
#214 = DIRECTION ( 'NONE',  ( -4.275831445896958607E-31, -1.000000000000000000, -1.224646799147353207E-16 ) ) ;
#215 = AXIS2_PLACEMENT_3D ( 'NONE', #145, #46, #25 ) ;
#216 = PLANE ( 'NONE',  #157 ) ;
#217 = DIRECTION ( 'NONE',  ( -3.491481338843133355E-15, 1.224646799147353207E-16, -1.000000000000000000 ) ) ;
#218 =( NAMED_UNIT ( * ) PLANE_ANGLE_UNIT ( ) SI_UNIT ( $, .RADIAN. ) );
#219 = CIRCLE ( 'NONE', #256, 0.2085000000000001297 ) ;
#220 =( LENGTH_UNIT ( ) NAMED_UNIT ( * ) SI_UNIT ( .MILLI., .METRE. ) );
#221 = EDGE_LOOP ( 'NONE', ( #177 ) ) ;
#222 = PERSON_AND_ORGANIZATION_ROLE ( 'design_owner' ) ;
#223 = FACE_BOUND ( 'NONE', #161, .T. ) ;
#224 = PERSON_AND_ORGANIZATION_ROLE ( 'creator' ) ;
#225 = ORIENTED_EDGE ( 'NONE', *, *, #81, .F. ) ;
#226 = PERSON_AND_ORGANIZATION_ROLE ( 'design_supplier' ) ;
#227 = TOROIDAL_SURFACE ( 'NONE', #65, 0.7085000000000001297, 0.5000000000000000000 ) ;
#228 = DIRECTION ( 'NONE',  ( 3.491481338843133355E-15, -1.224646799147353207E-16, 1.000000000000000000 ) ) ;
#229 = CC_DESIGN_PERSON_AND_ORGANIZATION_ASSIGNMENT ( #154, #222, ( #188 ) ) ;
#230 = DATE_AND_TIME ( #11, #129 ) ;
#231 = SECURITY_CLASSIFICATION ( '', '', #194 ) ;
#232 = EDGE_LOOP ( 'NONE', ( #94 ) ) ;
#233 = ADVANCED_FACE ( 'NONE', ( #61 ), #238, .T. ) ;
#234 = EDGE_LOOP ( 'NONE', ( #80 ) ) ;
#235 = FACE_OUTER_BOUND ( 'NONE', #140, .T. ) ;
#236 = DIRECTION ( 'NONE',  ( 4.275831445896958607E-31, 1.000000000000000000, 1.224646799147353207E-16 ) ) ;
#237 = DIRECTION ( 'NONE',  ( -3.491481338843133355E-15, 1.224646799147353207E-16, -1.000000000000000000 ) ) ;
#238 = PLANE ( 'NONE',  #108 ) ;
#239 = VERTEX_POINT ( 'NONE', #275 ) ;
#240 = CALENDAR_DATE ( 2021, 16, 12 ) ;
#241 = APPROVAL_DATE_TIME ( #67, #192 ) ;
#242 = ORIENTED_EDGE ( 'NONE', *, *, #58, .F. ) ;
#243 = VERTEX_POINT ( 'NONE', #175 ) ;
#244 = ORIENTED_EDGE ( 'NONE', *, *, #49, .F. ) ;
#245 = APPROVAL_STATUS ( 'not_yet_approved' ) ;
#246 = CARTESIAN_POINT ( 'NONE',  ( -3.192661096687096168E-32, 1.119834767358553364E-33, -9.144144810881193788E-18 ) ) ;
#247 = AXIS2_PLACEMENT_3D ( 'NONE', #102, #74, #68 ) ;
#248 = CC_DESIGN_SECURITY_CLASSIFICATION ( #231, ( #189 ) ) ;
#249 = UNCERTAINTY_MEASURE_WITH_UNIT (LENGTH_MEASURE( 1.000000000000000082E-05 ), #220, 'distance_accuracy_value', 'NONE');
#250 = ADVANCED_FACE ( 'NONE', ( #126, #18 ), #109, .T. ) ;
#251 = ORIENTED_EDGE ( 'NONE', *, *, #81, .T. ) ;
#252 = AXIS2_PLACEMENT_3D ( 'NONE', #190, #191, #106 ) ;
#253 = CYLINDRICAL_SURFACE ( 'NONE', #215, 0.7499999999999984457 ) ;
#254 = CARTESIAN_POINT ( 'NONE',  ( 1.047444401652940007E-13, -3.673940397442059178E-15, 30.00000000000000000 ) ) ;
#255 = FACE_OUTER_BOUND ( 'NONE', #234, .T. ) ;
#256 = AXIS2_PLACEMENT_3D ( 'NONE', #89, #217, #277 ) ;
#257 = CIRCLE ( 'NONE', #44, 0.2085000000000000464 ) ;
#258 = CARTESIAN_POINT ( 'NONE',  ( 1.022885281393957258E-15, -3.587798599459534481E-17, 0.2929659883941638787 ) ) ;
#259 = MANIFOLD_SOLID_BREP ( 'Corps-Déplacer/Copier1[2]', #84 ) ;
#260 = VERTEX_POINT ( 'NONE', #62 ) ;
#261 = DIRECTION ( 'NONE',  ( 4.275831445896958607E-31, 1.000000000000000000, 1.224646799147353207E-16 ) ) ;
#262 = LOCAL_TIME ( 9, 57, 35.00000000000000000, #120 ) ;
#263 = CARTESIAN_POINT ( 'NONE',  ( 1.022885281393957258E-15, 0.2084999999999997689, 0.2929659883941638787 ) ) ;
#264 = APPLICATION_PROTOCOL_DEFINITION ( 'international standard', 'config_control_design', 1994, #32 ) ;
#265 = DIRECTION ( 'NONE',  ( -3.491481338843133355E-15, 1.224646799147353207E-16, -1.000000000000000000 ) ) ;
#266 = PRODUCT_RELATED_PRODUCT_CATEGORY ( 'detail', '', ( #188 ) ) ;
#267 = EDGE_LOOP ( 'NONE', ( #203 ) ) ;
#268 = ORIENTED_EDGE ( 'NONE', *, *, #127, .F. ) ;
#269 = CARTESIAN_POINT ( 'NONE',  ( 0.0000000000000000000, 0.0000000000000000000, 0.0000000000000000000 ) ) ;
#270 = CARTESIAN_POINT ( 'NONE',  ( 1.810937715343869651E-14, -6.351914449257581400E-16, 5.186731761092285176 ) ) ;
#271 = LOCAL_TIME ( 9, 57, 35.00000000000000000, #50 ) ;
#272 = DIRECTION ( 'NONE',  ( 4.275831445896958607E-31, 1.000000000000000000, 1.224646799147353207E-16 ) ) ;
#273 = AXIS2_PLACEMENT_3D ( 'NONE', #138, #265, #272 ) ;
#274 = ORIENTED_EDGE ( 'NONE', *, *, #58, .T. ) ;
#275 = CARTESIAN_POINT ( 'NONE',  ( 8.728703347107833388E-15, 0.2084999999999997689, 2.500000000000000000 ) ) ;
#276 = DIRECTION ( 'NONE',  ( -4.275831445896958607E-31, -1.000000000000000000, -1.224646799147353207E-16 ) ) ;
#277 = DIRECTION ( 'NONE',  ( 0.0000000000000000000, 1.000000000000000000, 0.0000000000000000000 ) ) ;
#278 = AXIS2_PLACEMENT_3D ( 'NONE', #186, #35, #261 ) ;
#279 = CARTESIAN_POINT ( 'NONE',  ( 1.127542308347002789E-14, 0.2255370868554649189, 3.229409522551257350 ) ) ;
#280 = VERTEX_POINT ( 'NONE', #279 ) ;
#281 = CC_DESIGN_PERSON_AND_ORGANIZATION_ASSIGNMENT ( #3, #200, ( #189 ) ) ;
#282 = PERSON_AND_ORGANIZATION_ROLE ( 'classification_officer' ) ;
#283 = CIRCLE ( 'NONE', #117, 0.1300000000000000322 ) ;
ENDSEC;
END-ISO-10303-21;
