ISO-10303-21;
HEADER;
FILE_DESCRIPTION (( 'STEP AP203' ),
    '1' );
FILE_NAME ('986882.step',
    '2021-12-16T08:57:34',
    ( '' ),
    ( '' ),
    'SwSTEP 2.0',
    'SolidWorks 2019',
    '' );
FILE_SCHEMA (( 'CONFIG_CONTROL_DESIGN' ));
ENDSEC;

DATA;
#1 = CARTESIAN_POINT ( 'NONE',  ( -1.760227349498589466E-32, 6.174046429385562002E-34, -5.041491500801841684E-18 ) ) ;
#2 = APPROVAL_DATE_TIME ( #98, #216 ) ;
#3 = AXIS2_PLACEMENT_3D ( 'NONE', #32, #200, #110 ) ;
#4 = EDGE_CURVE ( 'NONE', #274, #274, #181, .T. ) ;
#5 = COORDINATED_UNIVERSAL_TIME_OFFSET ( 1, 0, .AHEAD. ) ;
#6 = PERSON_AND_ORGANIZATION_ROLE ( 'design_owner' ) ;
#7 = EDGE_LOOP ( 'NONE', ( #177 ) ) ;
#8 = FACE_BOUND ( 'NONE', #57, .T. ) ;
#9 =( NAMED_UNIT ( * ) SI_UNIT ( $, .STERADIAN. ) SOLID_ANGLE_UNIT ( ) );
#10 = AXIS2_PLACEMENT_3D ( 'NONE', #1, #167, #262 ) ;
#11 = PERSON_AND_ORGANIZATION ( #183, #265 ) ;
#12 = PERSON_AND_ORGANIZATION_ROLE ( 'design_supplier' ) ;
#13 = CARTESIAN_POINT ( 'NONE',  ( 1.047444401652940007E-13, 4.499279347985518085E-33, 30.00000000000000000 ) ) ;
#14 = ADVANCED_FACE ( 'NONE', ( #111 ), #114, .F. ) ;
#15 = PERSON_AND_ORGANIZATION ( #183, #265 ) ;
#16 = APPROVAL_DATE_TIME ( #77, #119 ) ;
#17 = EDGE_CURVE ( 'NONE', #194, #194, #210, .T. ) ;
#18 = DIRECTION ( 'NONE',  ( -3.491481338843133355E-15, 1.224646799147353207E-16, -1.000000000000000000 ) ) ;
#19 = CLOSED_SHELL ( 'NONE', ( #144, #62, #124, #66 ) ) ;
#20 = CIRCLE ( 'NONE', #83, 0.7499999999999998890 ) ;
#21 = EDGE_LOOP ( 'NONE', ( #223 ) ) ;
#22 = CC_DESIGN_DATE_AND_TIME_ASSIGNMENT ( #172, #151, ( #116 ) ) ;
#23 = CYLINDRICAL_SURFACE ( 'NONE', #204, 0.1824999999999998845 ) ;
#24 = CLOSED_SHELL ( 'NONE', ( #47, #149, #190, #221, #33, #271, #14 ) ) ;
#25 = EDGE_LOOP ( 'NONE', ( #99 ) ) ;
#26 = CARTESIAN_POINT ( 'NONE',  ( 1.047444401652940007E-13, 0.5999999999999963141, 30.00000000000000000 ) ) ;
#27 = APPLICATION_PROTOCOL_DEFINITION ( 'international standard', 'config_control_design', 1994, #259 ) ;
#28 = ORIENTED_EDGE ( 'NONE', *, *, #80, .T. ) ;
#29 = CC_DESIGN_APPROVAL ( #153, ( #128 ) ) ;
#30 = DIRECTION ( 'NONE',  ( -3.491481338843133355E-15, 1.224646799147353207E-16, -1.000000000000000000 ) ) ;
#31 = CARTESIAN_POINT ( 'NONE',  ( 0.0000000000000000000, 0.0000000000000000000, 0.0000000000000000000 ) ) ;
#32 = CARTESIAN_POINT ( 'NONE',  ( 7.332110811570581624E-15, -2.571758278209441957E-16, 2.100000000000000089 ) ) ;
#33 = ADVANCED_FACE ( 'NONE', ( #74, #89 ), #227, .T. ) ;
#34 = PERSON_AND_ORGANIZATION ( #183, #265 ) ;
#35 = CIRCLE ( 'NONE', #188, 0.6000000000000000888 ) ;
#36 = LOCAL_TIME ( 9, 57, 34.00000000000000000, #5 ) ;
#37 = DIRECTION ( 'NONE',  ( 4.275831445896958607E-31, 1.000000000000000000, 1.224646799147353207E-16 ) ) ;
#38 = ADVANCED_BREP_SHAPE_REPRESENTATION ( '986882', ( #125, #39, #175 ), #106 ) ;
#39 = MANIFOLD_SOLID_BREP ( 'Corps-Déplacer/Copier1[2]', #19 ) ;
#40 = AXIS2_PLACEMENT_3D ( 'NONE', #121, #42, #73 ) ;
#41 = CC_DESIGN_PERSON_AND_ORGANIZATION_ASSIGNMENT ( #11, #6, ( #270 ) ) ;
#42 = DIRECTION ( 'NONE',  ( -3.491481338843133355E-15, 1.224646799147353207E-16, -1.000000000000000000 ) ) ;
#43 = CARTESIAN_POINT ( 'NONE',  ( 1.182959891489475848E-32, 0.1100000000000000006, 3.388131789017201356E-18 ) ) ;
#44 = AXIS2_PLACEMENT_3D ( 'NONE', #31, #278, #112 ) ;
#45 = DIRECTION ( 'NONE',  ( 4.275831445896958607E-31, 1.000000000000000000, 1.224646799147353207E-16 ) ) ;
#46 = DIRECTION ( 'NONE',  ( -3.491481338843133355E-15, 1.224646799147353207E-16, -1.000000000000000000 ) ) ;
#47 = ADVANCED_FACE ( 'NONE', ( #199 ), #108, .F. ) ;
#48 = VERTEX_POINT ( 'NONE', #131 ) ;
#49 = FACE_OUTER_BOUND ( 'NONE', #7, .T. ) ;
#50 = ORIENTED_EDGE ( 'NONE', *, *, #17, .T. ) ;
#51 = AXIS2_PLACEMENT_3D ( 'NONE', #13, #202, #45 ) ;
#52 = DIRECTION ( 'NONE',  ( 0.0000000000000000000, -1.000000000000000000, 0.0000000000000000000 ) ) ;
#53 = DIRECTION ( 'NONE',  ( 3.491481338843133355E-15, -1.224646799147353207E-16, 1.000000000000000000 ) ) ;
#54 = APPROVAL_STATUS ( 'not_yet_approved' ) ;
#55 = DATE_AND_TIME ( #251, #283 ) ;
#56 = DIRECTION ( 'NONE',  ( -4.275831445896958607E-31, -1.000000000000000000, -1.224646799147353207E-16 ) ) ;
#57 = EDGE_LOOP ( 'NONE', ( #250 ) ) ;
#58 = PERSON_AND_ORGANIZATION ( #183, #265 ) ;
#59 = FACE_OUTER_BOUND ( 'NONE', #191, .T. ) ;
#60 = DIRECTION ( 'NONE',  ( 0.0000000000000000000, 1.000000000000000000, 0.0000000000000000000 ) ) ;
#61 = FACE_OUTER_BOUND ( 'NONE', #25, .T. ) ;
#62 = ADVANCED_FACE ( 'NONE', ( #137, #49 ), #101, .T. ) ;
#63 = AXIS2_PLACEMENT_3D ( 'NONE', #136, #30, #198 ) ;
#64 = APPROVAL_STATUS ( 'not_yet_approved' ) ;
#65 = CALENDAR_DATE ( 2021, 16, 12 ) ;
#66 = ADVANCED_FACE ( 'NONE', ( #138 ), #115, .T. ) ;
#67 = ORIENTED_EDGE ( 'NONE', *, *, #17, .F. ) ;
#68 = EDGE_LOOP ( 'NONE', ( #154 ) ) ;
#69 = CARTESIAN_POINT ( 'NONE',  ( 1.495668584410184048E-14, -5.246099196079588824E-16, 4.283765082089078469 ) ) ;
#70 = CARTESIAN_POINT ( 'NONE',  ( 1.042207179644675275E-13, 0.7499999999999962252, 29.84999999999999787 ) ) ;
#71 = CC_DESIGN_PERSON_AND_ORGANIZATION_ASSIGNMENT ( #84, #171, ( #116 ) ) ;
#72 = APPROVAL_PERSON_ORGANIZATION ( #282, #153, #140 ) ;
#73 = DIRECTION ( 'NONE',  ( 0.0000000000000000000, 1.000000000000000000, 0.0000000000000000000 ) ) ;
#74 = FACE_OUTER_BOUND ( 'NONE', #229, .T. ) ;
#75 = CC_DESIGN_PERSON_AND_ORGANIZATION_ASSIGNMENT ( #15, #12, ( #86 ) ) ;
#76 = APPROVAL_ROLE ( '' ) ;
#77 = DATE_AND_TIME ( #159, #253 ) ;
#78 = LOCAL_TIME ( 9, 57, 34.00000000000000000, #267 ) ;
#79 = AXIS2_PLACEMENT_3D ( 'NONE', #162, #53, #255 ) ;
#80 = EDGE_CURVE ( 'NONE', #187, #187, #117, .T. ) ;
#81 = CARTESIAN_POINT ( 'NONE',  ( 9.447029668925086749E-16, -3.313571954914857715E-17, 0.2705736835487501657 ) ) ;
#82 = CC_DESIGN_APPROVAL ( #216, ( #116 ) ) ;
#83 = AXIS2_PLACEMENT_3D ( 'NONE', #228, #266, #147 ) ;
#84 = PERSON_AND_ORGANIZATION ( #183, #265 ) ;
#85 = EDGE_LOOP ( 'NONE', ( #130 ) ) ;
#86 = PRODUCT_DEFINITION_FORMATION_WITH_SPECIFIED_SOURCE ( 'ANY', '', #270, .NOT_KNOWN. ) ;
#87 = CARTESIAN_POINT ( 'NONE',  ( 7.332110811570581624E-15, -2.168404344971008868E-16, 2.100000000000000089 ) ) ;
#88 = CARTESIAN_POINT ( 'NONE',  ( 0.0000000000000000000, 0.0000000000000000000, 0.0000000000000000000 ) ) ;
#89 = FACE_OUTER_BOUND ( 'NONE', #242, .T. ) ;
#90 = APPLICATION_PROTOCOL_DEFINITION ( 'international standard', 'config_control_design', 1994, #220 ) ;
#91 = EDGE_CURVE ( 'NONE', #214, #214, #35, .T. ) ;
#92 = COORDINATED_UNIVERSAL_TIME_OFFSET ( 1, 0, .AHEAD. ) ;
#93 = AXIS2_PLACEMENT_3D ( 'NONE', #102, #156, #217 ) ;
#94 = PERSON_AND_ORGANIZATION_ROLE ( 'creator' ) ;
#95 = CC_DESIGN_PERSON_AND_ORGANIZATION_ASSIGNMENT ( #113, #94, ( #86 ) ) ;
#96 = DIRECTION ( 'NONE',  ( -3.491481338843133355E-15, 1.224646799147353207E-16, -1.000000000000000000 ) ) ;
#97 = CIRCLE ( 'NONE', #120, 0.1100000000000000006 ) ;
#98 = DATE_AND_TIME ( #213, #36 ) ;
#99 = ORIENTED_EDGE ( 'NONE', *, *, #277, .F. ) ;
#100 = FACE_OUTER_BOUND ( 'NONE', #127, .T. ) ;
#101 = CONICAL_SURFACE ( 'NONE', #241, 0.1824999999999998013, 0.2617993877991426355 ) ;
#102 = CARTESIAN_POINT ( 'NONE',  ( 5.237222008264700033E-15, -1.836970198721029934E-16, 1.500000000000000000 ) ) ;
#103 = EDGE_LOOP ( 'NONE', ( #236 ) ) ;
#104 = EDGE_LOOP ( 'NONE', ( #152 ) ) ;
#105 = EDGE_CURVE ( 'NONE', #276, #276, #122, .T. ) ;
#106 =( GEOMETRIC_REPRESENTATION_CONTEXT ( 3 ) GLOBAL_UNCERTAINTY_ASSIGNED_CONTEXT ( ( #205 ) ) GLOBAL_UNIT_ASSIGNED_CONTEXT ( ( #174, #264, #9 ) ) REPRESENTATION_CONTEXT ( 'NONE', 'WORKASPACE' ) );
#107 = VERTEX_POINT ( 'NONE', #70 ) ;
#108 = PLANE ( 'NONE',  #203 ) ;
#109 = LOCAL_TIME ( 9, 57, 34.00000000000000000, #92 ) ;
#110 = DIRECTION ( 'NONE',  ( 0.0000000000000000000, 1.000000000000000000, 0.0000000000000000000 ) ) ;
#111 = FACE_OUTER_BOUND ( 'NONE', #21, .T. ) ;
#112 = DIRECTION ( 'NONE',  ( 4.275831445896958607E-31, 1.000000000000000000, 1.224646799147353454E-16 ) ) ;
#113 = PERSON_AND_ORGANIZATION ( #183, #265 ) ;
#114 = PLANE ( 'NONE',  #51 ) ;
#115 = PLANE ( 'NONE',  #79 ) ;
#116 = PRODUCT_DEFINITION ( 'UNKNOWN', '', #86, #232 ) ;
#117 = CIRCLE ( 'NONE', #3, 0.1825000000000000511 ) ;
#118 = CALENDAR_DATE ( 2021, 16, 12 ) ;
#119 = APPROVAL ( #180, 'UNSPECIFIED' ) ;
#120 = AXIS2_PLACEMENT_3D ( 'NONE', #143, #233, #37 ) ;
#121 = CARTESIAN_POINT ( 'NONE',  ( 1.047444401652940007E-13, -3.673940397442059178E-15, 30.00000000000000000 ) ) ;
#122 = CIRCLE ( 'NONE', #192, 0.1824999999999998013 ) ;
#123 = CARTESIAN_POINT ( 'NONE',  ( 7.332110811570581624E-15, 0.1824999999999998013, 2.100000000000000089 ) ) ;
#124 = ADVANCED_FACE ( 'NONE', ( #164, #59 ), #23, .T. ) ;
#125 = MANIFOLD_SOLID_BREP ( 'Corps-Déplacer/Copier1[1]', #24 ) ;
#126 = ORIENTED_EDGE ( 'NONE', *, *, #4, .T. ) ;
#127 = EDGE_LOOP ( 'NONE', ( #155 ) ) ;
#128 = SECURITY_CLASSIFICATION ( '', '', #182 ) ;
#129 = DIRECTION ( 'NONE',  ( -3.491481338843133355E-15, 1.224646799147353207E-16, -1.000000000000000000 ) ) ;
#130 = ORIENTED_EDGE ( 'NONE', *, *, #105, .F. ) ;
#131 = CARTESIAN_POINT ( 'NONE',  ( 5.237222008264700033E-15, 0.1824999999999998013, 1.500000000000000000 ) ) ;
#132 = CARTESIAN_POINT ( 'NONE',  ( 1.047444401652940007E-13, -3.673940397442059178E-15, 30.00000000000000000 ) ) ;
#133 = DIRECTION ( 'NONE',  ( 0.0000000000000000000, 0.0000000000000000000, 1.000000000000000000 ) ) ;
#134 = APPROVAL_DATE_TIME ( #55, #153 ) ;
#135 = DIRECTION ( 'NONE',  ( 3.491481338843133355E-15, -1.224646799147353207E-16, 1.000000000000000000 ) ) ;
#136 = CARTESIAN_POINT ( 'NONE',  ( 7.783941744626894536E-15, -2.730239235781026537E-16, 2.229409522551257350 ) ) ;
#137 = FACE_BOUND ( 'NONE', #103, .T. ) ;
#138 = FACE_OUTER_BOUND ( 'NONE', #239, .T. ) ;
#139 = FACE_OUTER_BOUND ( 'NONE', #68, .T. ) ;
#140 = APPROVAL_ROLE ( '' ) ;
#141 = EDGE_LOOP ( 'NONE', ( #126 ) ) ;
#142 = DATE_TIME_ROLE ( 'classification_date' ) ;
#143 = CARTESIAN_POINT ( 'NONE',  ( -3.520454698997178931E-32, 1.234809285877112400E-33, -1.008298300160368337E-17 ) ) ;
#144 = ADVANCED_FACE ( 'NONE', ( #100 ), #185, .F. ) ;
#145 = FACE_OUTER_BOUND ( 'NONE', #215, .T. ) ;
#146 = AXIS2_PLACEMENT_3D ( 'NONE', #87, #129, #222 ) ;
#147 = DIRECTION ( 'NONE',  ( 0.0000000000000000000, 1.000000000000000000, 0.0000000000000000000 ) ) ;
#148 = APPROVAL_ROLE ( '' ) ;
#149 = ADVANCED_FACE ( 'NONE', ( #61, #145 ), #235, .T. ) ;
#150 = VERTEX_POINT ( 'NONE', #237 ) ;
#151 = DATE_TIME_ROLE ( 'creation_date' ) ;
#152 = ORIENTED_EDGE ( 'NONE', *, *, #80, .F. ) ;
#153 = APPROVAL ( #54, 'UNSPECIFIED' ) ;
#154 = ORIENTED_EDGE ( 'NONE', *, *, #245, .F. ) ;
#155 = ORIENTED_EDGE ( 'NONE', *, *, #169, .T. ) ;
#156 = DIRECTION ( 'NONE',  ( -3.491481338843133355E-15, 1.224646799147353207E-16, -1.000000000000000000 ) ) ;
#157 = CARTESIAN_POINT ( 'NONE',  ( 5.237222008264700033E-15, 1.368530801678942057E-33, 1.500000000000000000 ) ) ;
#158 = ORIENTED_EDGE ( 'NONE', *, *, #260, .T. ) ;
#159 = CALENDAR_DATE ( 2021, 16, 12 ) ;
#160 = DIRECTION ( 'NONE',  ( 3.491481338843133355E-15, -1.224646799147353207E-16, 1.000000000000000000 ) ) ;
#161 = EDGE_LOOP ( 'NONE', ( #158 ) ) ;
#162 = CARTESIAN_POINT ( 'NONE',  ( 5.237222008264700033E-15, 1.368530801678942057E-33, 1.500000000000000000 ) ) ;
#163 = CC_DESIGN_APPROVAL ( #119, ( #86 ) ) ;
#164 = FACE_OUTER_BOUND ( 'NONE', #85, .T. ) ;
#165 = DATE_AND_TIME ( #118, #109 ) ;
#166 = AXIS2_PLACEMENT_3D ( 'NONE', #69, #46, #179 ) ;
#167 = DIRECTION ( 'NONE',  ( 3.491481338843133355E-15, -1.224646799147353207E-16, 1.000000000000000000 ) ) ;
#168 = DIRECTION ( 'NONE',  ( -3.491481338843133355E-15, 1.224646799147353207E-16, -1.000000000000000000 ) ) ;
#169 = EDGE_CURVE ( 'NONE', #238, #238, #97, .T. ) ;
#170 = AXIS2_PLACEMENT_3D ( 'NONE', #186, #234, #52 ) ;
#171 = PERSON_AND_ORGANIZATION_ROLE ( 'creator' ) ;
#172 = DATE_AND_TIME ( #65, #78 ) ;
#173 = CARTESIAN_POINT ( 'NONE',  ( 0.0000000000000000000, 0.0000000000000000000, 0.0000000000000000000 ) ) ;
#174 =( LENGTH_UNIT ( ) NAMED_UNIT ( * ) SI_UNIT ( .MILLI., .METRE. ) );
#175 = AXIS2_PLACEMENT_3D ( 'NONE', #88, #133, #226 ) ;
#176 = PRODUCT_DEFINITION_SHAPE ( 'NONE', 'NONE',  #116 ) ;
#177 = ORIENTED_EDGE ( 'NONE', *, *, #105, .T. ) ;
#178 = CARTESIAN_POINT ( 'NONE',  ( 7.783941744626894536E-15, 0.1995370868554647292, 2.229409522551257350 ) ) ;
#179 = DIRECTION ( 'NONE',  ( 0.0000000000000000000, 1.000000000000000000, 0.0000000000000000000 ) ) ;
#180 = APPROVAL_STATUS ( 'not_yet_approved' ) ;
#181 = CIRCLE ( 'NONE', #63, 0.1995370868554650068 ) ;
#182 = SECURITY_CLASSIFICATION_LEVEL ( 'unclassified' ) ;
#183 = PERSON ( 'UNSPECIFIED', 'UNSPECIFIED', 'UNSPECIFIED', ('UNSPECIFIED'), ('UNSPECIFIED'), ('UNSPECIFIED') ) ;
#184 = CC_DESIGN_SECURITY_CLASSIFICATION ( #128, ( #86 ) ) ;
#185 = PLANE ( 'NONE',  #10 ) ;
#186 = CARTESIAN_POINT ( 'NONE',  ( 1.495668584410184048E-14, -5.246099196079588824E-16, 4.283765082089078469 ) ) ;
#187 = VERTEX_POINT ( 'NONE', #123 ) ;
#188 = AXIS2_PLACEMENT_3D ( 'NONE', #132, #261, #60 ) ;
#189 = PERSON_AND_ORGANIZATION ( #183, #265 ) ;
#190 = ADVANCED_FACE ( 'NONE', ( #207, #244 ), #281, .F. ) ;
#191 = EDGE_LOOP ( 'NONE', ( #50 ) ) ;
#192 = AXIS2_PLACEMENT_3D ( 'NONE', #81, #168, #263 ) ;
#193 = CC_DESIGN_PERSON_AND_ORGANIZATION_ASSIGNMENT ( #34, #257, ( #128 ) ) ;
#194 = VERTEX_POINT ( 'NONE', #249 ) ;
#195 = MECHANICAL_CONTEXT ( 'NONE', #259, 'mechanical' ) ;
#196 = APPROVAL_PERSON_ORGANIZATION ( #189, #216, #148 ) ;
#197 = CC_DESIGN_DATE_AND_TIME_ASSIGNMENT ( #165, #142, ( #128 ) ) ;
#198 = DIRECTION ( 'NONE',  ( 0.0000000000000000000, 1.000000000000000000, 0.0000000000000000000 ) ) ;
#199 = FACE_OUTER_BOUND ( 'NONE', #269, .T. ) ;
#200 = DIRECTION ( 'NONE',  ( -3.491481338843133355E-15, 1.224646799147353207E-16, -1.000000000000000000 ) ) ;
#201 = CARTESIAN_POINT ( 'NONE',  ( 9.447029668925086749E-16, -3.313571954914857715E-17, 0.2705736835487501657 ) ) ;
#202 = DIRECTION ( 'NONE',  ( -3.491481338843133355E-15, 1.224646799147353207E-16, -1.000000000000000000 ) ) ;
#203 = AXIS2_PLACEMENT_3D ( 'NONE', #157, #160, #56 ) ;
#204 = AXIS2_PLACEMENT_3D ( 'NONE', #243, #96, #208 ) ;
#205 = UNCERTAINTY_MEASURE_WITH_UNIT (LENGTH_MEASURE( 1.000000000000000082E-05 ), #174, 'distance_accuracy_value', 'NONE');
#206 = COORDINATED_UNIVERSAL_TIME_OFFSET ( 1, 0, .AHEAD. ) ;
#207 = FACE_OUTER_BOUND ( 'NONE', #104, .T. ) ;
#208 = DIRECTION ( 'NONE',  ( 4.275831445896958607E-31, 1.000000000000000000, 1.224646799147353207E-16 ) ) ;
#209 = FACE_OUTER_BOUND ( 'NONE', #161, .T. ) ;
#210 = CIRCLE ( 'NONE', #219, 0.1824999999999999956 ) ;
#211 = CIRCLE ( 'NONE', #166, 0.7499999999999968914 ) ;
#212 = FACE_BOUND ( 'NONE', #272, .T. ) ;
#213 = CALENDAR_DATE ( 2021, 16, 12 ) ;
#214 = VERTEX_POINT ( 'NONE', #26 ) ;
#215 = EDGE_LOOP ( 'NONE', ( #28 ) ) ;
#216 = APPROVAL ( #64, 'UNSPECIFIED' ) ;
#217 = DIRECTION ( 'NONE',  ( 0.0000000000000000000, 1.000000000000000000, 0.0000000000000000000 ) ) ;
#218 = ORIENTED_EDGE ( 'NONE', *, *, #277, .T. ) ;
#219 = AXIS2_PLACEMENT_3D ( 'NONE', #224, #268, #254 ) ;
#220 = APPLICATION_CONTEXT ( 'configuration controlled 3d designs of mechanical parts and assemblies' ) ;
#221 = ADVANCED_FACE ( 'NONE', ( #8, #209 ), #247, .T. ) ;
#222 = DIRECTION ( 'NONE',  ( 4.275831445896958607E-31, 1.000000000000000000, 1.224646799147353207E-16 ) ) ;
#223 = ORIENTED_EDGE ( 'NONE', *, *, #91, .F. ) ;
#224 = CARTESIAN_POINT ( 'NONE',  ( 5.237222008264700033E-15, -1.836970198721029934E-16, 1.500000000000000000 ) ) ;
#225 = CARTESIAN_POINT ( 'NONE',  ( 9.447029668925086749E-16, 0.1824999999999997735, 0.2705736835487501657 ) ) ;
#226 = DIRECTION ( 'NONE',  ( 1.000000000000000000, 0.0000000000000000000, 0.0000000000000000000 ) ) ;
#227 = CYLINDRICAL_SURFACE ( 'NONE', #44, 0.7499999999999983347 ) ;
#228 = CARTESIAN_POINT ( 'NONE',  ( 1.042207179644675275E-13, -3.655570695454848748E-15, 29.84999999999999787 ) ) ;
#229 = EDGE_LOOP ( 'NONE', ( #273 ) ) ;
#230 = SHAPE_DEFINITION_REPRESENTATION ( #176, #38 ) ;
#231 = AXIS2_PLACEMENT_3D ( 'NONE', #173, #18, #258 ) ;
#232 = DESIGN_CONTEXT ( 'detailed design', #220, 'design' ) ;
#233 = DIRECTION ( 'NONE',  ( -3.491481338843133355E-15, 1.224646799147353207E-16, -1.000000000000000000 ) ) ;
#234 = DIRECTION ( 'NONE',  ( 3.491481338843133355E-15, -1.224646799147353207E-16, 1.000000000000000000 ) ) ;
#235 = CYLINDRICAL_SURFACE ( 'NONE', #231, 0.1825000000000000233 ) ;
#236 = ORIENTED_EDGE ( 'NONE', *, *, #169, .F. ) ;
#237 = CARTESIAN_POINT ( 'NONE',  ( 1.495668584410184048E-14, 0.7499999999999963363, 4.283765082089078469 ) ) ;
#238 = VERTEX_POINT ( 'NONE', #43 ) ;
#239 = EDGE_LOOP ( 'NONE', ( #67 ) ) ;
#240 = APPROVAL_PERSON_ORGANIZATION ( #58, #119, #76 ) ;
#241 = AXIS2_PLACEMENT_3D ( 'NONE', #201, #135, #252 ) ;
#242 = EDGE_LOOP ( 'NONE', ( #256 ) ) ;
#243 = CARTESIAN_POINT ( 'NONE',  ( 0.0000000000000000000, 0.0000000000000000000, 0.0000000000000000000 ) ) ;
#244 = FACE_OUTER_BOUND ( 'NONE', #141, .T. ) ;
#245 = EDGE_CURVE ( 'NONE', #107, #107, #20, .T. ) ;
#246 = PRODUCT_RELATED_PRODUCT_CATEGORY ( 'detail', '', ( #270 ) ) ;
#247 = CONICAL_SURFACE ( 'NONE', #170, 0.7499999999999968914, 0.2617993877991428020 ) ;
#248 = CONICAL_SURFACE ( 'NONE', #40, 0.6000000000000000888, 0.7853981633974450594 ) ;
#249 = CARTESIAN_POINT ( 'NONE',  ( 5.237222008264700033E-15, 0.1824999999999998013, 1.500000000000000000 ) ) ;
#250 = ORIENTED_EDGE ( 'NONE', *, *, #4, .F. ) ;
#251 = CALENDAR_DATE ( 2021, 16, 12 ) ;
#252 = DIRECTION ( 'NONE',  ( 0.0000000000000000000, -1.000000000000000000, 0.0000000000000000000 ) ) ;
#253 = LOCAL_TIME ( 9, 57, 34.00000000000000000, #206 ) ;
#254 = DIRECTION ( 'NONE',  ( 0.0000000000000000000, 1.000000000000000000, 0.0000000000000000000 ) ) ;
#255 = DIRECTION ( 'NONE',  ( -4.275831445896958607E-31, -1.000000000000000000, -1.224646799147353207E-16 ) ) ;
#256 = ORIENTED_EDGE ( 'NONE', *, *, #245, .T. ) ;
#257 = PERSON_AND_ORGANIZATION_ROLE ( 'classification_officer' ) ;
#258 = DIRECTION ( 'NONE',  ( 4.275831445896958607E-31, 1.000000000000000000, 1.224646799147353207E-16 ) ) ;
#259 = APPLICATION_CONTEXT ( 'configuration controlled 3d designs of mechanical parts and assemblies' ) ;
#260 = EDGE_CURVE ( 'NONE', #150, #150, #211, .T. ) ;
#261 = DIRECTION ( 'NONE',  ( -3.491481338843133355E-15, 1.224646799147353207E-16, -1.000000000000000000 ) ) ;
#262 = DIRECTION ( 'NONE',  ( -4.275831445896958607E-31, -1.000000000000000000, -1.224646799147353207E-16 ) ) ;
#263 = DIRECTION ( 'NONE',  ( 0.0000000000000000000, 1.000000000000000000, 0.0000000000000000000 ) ) ;
#264 =( NAMED_UNIT ( * ) PLANE_ANGLE_UNIT ( ) SI_UNIT ( $, .RADIAN. ) );
#265 = ORGANIZATION ( 'UNSPECIFIED', 'UNSPECIFIED', '' ) ;
#266 = DIRECTION ( 'NONE',  ( -3.491481338843133355E-15, 1.224646799147353207E-16, -1.000000000000000000 ) ) ;
#267 = COORDINATED_UNIVERSAL_TIME_OFFSET ( 1, 0, .AHEAD. ) ;
#268 = DIRECTION ( 'NONE',  ( -3.491481338843133355E-15, 1.224646799147353207E-16, -1.000000000000000000 ) ) ;
#269 = EDGE_LOOP ( 'NONE', ( #218 ) ) ;
#270 = PRODUCT ( '986882', '986882', '', ( #195 ) ) ;
#271 = ADVANCED_FACE ( 'NONE', ( #139, #212 ), #248, .T. ) ;
#272 = EDGE_LOOP ( 'NONE', ( #279 ) ) ;
#273 = ORIENTED_EDGE ( 'NONE', *, *, #260, .F. ) ;
#274 = VERTEX_POINT ( 'NONE', #178 ) ;
#275 = CIRCLE ( 'NONE', #93, 0.1824999999999999956 ) ;
#276 = VERTEX_POINT ( 'NONE', #225 ) ;
#277 = EDGE_CURVE ( 'NONE', #48, #48, #275, .T. ) ;
#278 = DIRECTION ( 'NONE',  ( -3.491481338843133355E-15, 1.224646799147353207E-16, -1.000000000000000000 ) ) ;
#279 = ORIENTED_EDGE ( 'NONE', *, *, #91, .T. ) ;
#280 = COORDINATED_UNIVERSAL_TIME_OFFSET ( 1, 0, .AHEAD. ) ;
#281 = TOROIDAL_SURFACE ( 'NONE', #146, 0.6825000000000001066, 0.5000000000000000000 ) ;
#282 = PERSON_AND_ORGANIZATION ( #183, #265 ) ;
#283 = LOCAL_TIME ( 9, 57, 34.00000000000000000, #280 ) ;
ENDSEC;
END-ISO-10303-21;
