ISO-10303-21;
HEADER;
FILE_DESCRIPTION (( 'STEP AP203' ),
    '1' );
FILE_NAME ('986881.step',
    '2021-12-16T08:57:34',
    ( '' ),
    ( '' ),
    'SwSTEP 2.0',
    'SolidWorks 2019',
    '' );
FILE_SCHEMA (( 'CONFIG_CONTROL_DESIGN' ));
ENDSEC;

DATA;
#1 = PERSON_AND_ORGANIZATION ( #212, #248 ) ;
#2 = ADVANCED_BREP_SHAPE_REPRESENTATION ( '986881', ( #156, #249, #13 ), #159 ) ;
#3 = DIRECTION ( 'NONE',  ( 0.0000000000000000000, 1.000000000000000000, 0.0000000000000000000 ) ) ;
#4 = APPROVAL_PERSON_ORGANIZATION ( #243, #99, #68 ) ;
#5 = DIRECTION ( 'NONE',  ( 3.491481338843133355E-15, -1.224646799147353207E-16, 1.000000000000000000 ) ) ;
#6 = EDGE_CURVE ( 'NONE', #239, #239, #37, .T. ) ;
#7 = EDGE_LOOP ( 'NONE', ( #115 ) ) ;
#8 = ORIENTED_EDGE ( 'NONE', *, *, #81, .F. ) ;
#9 = PRODUCT_RELATED_PRODUCT_CATEGORY ( 'detail', '', ( #104 ) ) ;
#10 = CIRCLE ( 'NONE', #161, 0.6000000000000000888 ) ;
#11 = CARTESIAN_POINT ( 'NONE',  ( 5.586370142149013368E-15, -2.168404344971008868E-16, 1.599999999999999867 ) ) ;
#12 = DIRECTION ( 'NONE',  ( -3.491481338843133355E-15, 1.224646799147353207E-16, -1.000000000000000000 ) ) ;
#13 = AXIS2_PLACEMENT_3D ( 'NONE', #138, #231, #274 ) ;
#14 =( LENGTH_UNIT ( ) NAMED_UNIT ( * ) SI_UNIT ( .MILLI., .METRE. ) );
#15 = PRODUCT_DEFINITION ( 'UNKNOWN', '', #241, #181 ) ;
#16 =( NAMED_UNIT ( * ) PLANE_ANGLE_UNIT ( ) SI_UNIT ( $, .RADIAN. ) );
#17 = DATE_AND_TIME ( #57, #211 ) ;
#18 = VERTEX_POINT ( 'NONE', #86 ) ;
#19 = CIRCLE ( 'NONE', #184, 0.7499999999999967804 ) ;
#20 = APPROVAL_STATUS ( 'not_yet_approved' ) ;
#21 = FACE_OUTER_BOUND ( 'NONE', #187, .T. ) ;
#22 = EDGE_LOOP ( 'NONE', ( #190 ) ) ;
#23 = LOCAL_TIME ( 9, 57, 34.00000000000000000, #250 ) ;
#24 = DIRECTION ( 'NONE',  ( -3.491481338843133355E-15, 1.224646799147353207E-16, -1.000000000000000000 ) ) ;
#25 = CC_DESIGN_DATE_AND_TIME_ASSIGNMENT ( #88, #64, ( #227 ) ) ;
#26 = APPROVAL_ROLE ( '' ) ;
#27 = CARTESIAN_POINT ( 'NONE',  ( -3.213979828290531224E-32, 1.127312371815313469E-33, -9.205204084967130076E-18 ) ) ;
#28 = FACE_OUTER_BOUND ( 'NONE', #244, .T. ) ;
#29 = AXIS2_PLACEMENT_3D ( 'NONE', #89, #5, #183 ) ;
#30 = VERTEX_POINT ( 'NONE', #127 ) ;
#31 = COORDINATED_UNIVERSAL_TIME_OFFSET ( 1, 0, .AHEAD. ) ;
#32 = DIRECTION ( 'NONE',  ( -3.491481338843133355E-15, 1.224646799147353207E-16, -1.000000000000000000 ) ) ;
#33 = DIRECTION ( 'NONE',  ( -3.491481338843133355E-15, 1.224646799147353207E-16, -1.000000000000000000 ) ) ;
#34 = CARTESIAN_POINT ( 'NONE',  ( 5.586370142149013368E-15, -1.959434878635764984E-16, 1.599999999999999867 ) ) ;
#35 = FACE_OUTER_BOUND ( 'NONE', #268, .T. ) ;
#36 = AXIS2_PLACEMENT_3D ( 'NONE', #203, #45, #191 ) ;
#37 = CIRCLE ( 'NONE', #119, 0.09500000000000000111 ) ;
#38 = CARTESIAN_POINT ( 'NONE',  ( 1.047444401652940007E-13, -3.673940397442059178E-15, 30.00000000000000000 ) ) ;
#39 = APPROVAL_DATE_TIME ( #17, #270 ) ;
#40 = CLOSED_SHELL ( 'NONE', ( #113, #141, #230, #153, #166, #281, #173 ) ) ;
#41 = EDGE_CURVE ( 'NONE', #30, #30, #283, .T. ) ;
#42 = ORIENTED_EDGE ( 'NONE', *, *, #46, .F. ) ;
#43 = CARTESIAN_POINT ( 'NONE',  ( 1.042207179644675275E-13, -3.655570695454848748E-15, 29.84999999999999787 ) ) ;
#44 = AXIS2_PLACEMENT_3D ( 'NONE', #101, #148, #55 ) ;
#45 = DIRECTION ( 'NONE',  ( -3.491481338843133355E-15, 1.224646799147353207E-16, -1.000000000000000000 ) ) ;
#46 = EDGE_CURVE ( 'NONE', #254, #254, #19, .T. ) ;
#47 = FACE_BOUND ( 'NONE', #273, .T. ) ;
#48 = APPROVAL_STATUS ( 'not_yet_approved' ) ;
#49 = VERTEX_POINT ( 'NONE', #145 ) ;
#50 = CIRCLE ( 'NONE', #136, 0.1569999999999996676 ) ;
#51 = PERSON_AND_ORGANIZATION_ROLE ( 'classification_officer' ) ;
#52 = FACE_OUTER_BOUND ( 'NONE', #247, .T. ) ;
#53 = PERSON_AND_ORGANIZATION ( #212, #248 ) ;
#54 = CARTESIAN_POINT ( 'NONE',  ( 1.354322001131143629E-14, 0.7499999999999963363, 3.878932377682088095 ) ) ;
#55 = DIRECTION ( 'NONE',  ( 4.275831445896958607E-31, 1.000000000000000000, 1.224646799147353207E-16 ) ) ;
#56 = VERTEX_POINT ( 'NONE', #264 ) ;
#57 = CALENDAR_DATE ( 2021, 16, 12 ) ;
#58 = ADVANCED_FACE ( 'NONE', ( #277 ), #176, .T. ) ;
#59 = CARTESIAN_POINT ( 'NONE',  ( 1.354322001131143629E-14, -4.750322120437401541E-16, 3.878932377682088095 ) ) ;
#60 = CIRCLE ( 'NONE', #219, 0.1569999999999996121 ) ;
#61 = DIRECTION ( 'NONE',  ( -3.491481338843133355E-15, 1.224646799147353207E-16, -1.000000000000000000 ) ) ;
#62 = ORIENTED_EDGE ( 'NONE', *, *, #81, .T. ) ;
#63 = CC_DESIGN_DATE_AND_TIME_ASSIGNMENT ( #129, #122, ( #15 ) ) ;
#64 = DATE_TIME_ROLE ( 'classification_date' ) ;
#65 = CARTESIAN_POINT ( 'NONE',  ( 3.491481338843133355E-15, -1.224646799147353207E-16, 1.000000000000000000 ) ) ;
#66 = LOCAL_TIME ( 9, 57, 34.00000000000000000, #111 ) ;
#67 = EDGE_CURVE ( 'NONE', #49, #49, #50, .T. ) ;
#68 = APPROVAL_ROLE ( '' ) ;
#69 = CONICAL_SURFACE ( 'NONE', #278, 0.7499999999999967804, 0.2617993877991428020 ) ;
#70 = EDGE_LOOP ( 'NONE', ( #229 ) ) ;
#71 = CC_DESIGN_PERSON_AND_ORGANIZATION_ASSIGNMENT ( #142, #124, ( #241 ) ) ;
#72 = EDGE_LOOP ( 'NONE', ( #83 ) ) ;
#73 = DIRECTION ( 'NONE',  ( -3.491481338843133355E-15, 1.224646799147353207E-16, -1.000000000000000000 ) ) ;
#74 = PLANE ( 'NONE',  #189 ) ;
#75 = CC_DESIGN_PERSON_AND_ORGANIZATION_ASSIGNMENT ( #1, #109, ( #241 ) ) ;
#76 = DIRECTION ( 'NONE',  ( 4.275831445896959482E-31, 1.000000000000000000, 1.224646799147353207E-16 ) ) ;
#77 = UNCERTAINTY_MEASURE_WITH_UNIT (LENGTH_MEASURE( 1.000000000000000082E-05 ), #14, 'distance_accuracy_value', 'NONE');
#78 = AXIS2_PLACEMENT_3D ( 'NONE', #217, #279, #150 ) ;
#79 = DIRECTION ( 'NONE',  ( 4.275831445896958607E-31, 1.000000000000000000, 1.224646799147352961E-16 ) ) ;
#80 = APPLICATION_CONTEXT ( 'configuration controlled 3d designs of mechanical parts and assemblies' ) ;
#81 = EDGE_CURVE ( 'NONE', #126, #126, #10, .T. ) ;
#82 = CARTESIAN_POINT ( 'NONE',  ( 1.047444401652940007E-13, 4.499279347985518085E-33, 30.00000000000000000 ) ) ;
#83 = ORIENTED_EDGE ( 'NONE', *, *, #67, .T. ) ;
#84 = CARTESIAN_POINT ( 'NONE',  ( 0.0000000000000000000, 0.0000000000000000000, 0.0000000000000000000 ) ) ;
#85 = CIRCLE ( 'NONE', #36, 0.1569999999999995011 ) ;
#86 = CARTESIAN_POINT ( 'NONE',  ( 3.491481338843133355E-15, 0.1569999999999994733, 1.000000000000000000 ) ) ;
#87 = EDGE_CURVE ( 'NONE', #18, #18, #175, .T. ) ;
#88 = DATE_AND_TIME ( #214, #197 ) ;
#89 = CARTESIAN_POINT ( 'NONE',  ( 3.491481338843133355E-15, 1.177311429389553576E-33, 1.000000000000000000 ) ) ;
#90 = ORIENTED_EDGE ( 'NONE', *, *, #67, .F. ) ;
#91 = CC_DESIGN_PERSON_AND_ORGANIZATION_ASSIGNMENT ( #118, #205, ( #104 ) ) ;
#92 = ORIENTED_EDGE ( 'NONE', *, *, #41, .F. ) ;
#93 = ORIENTED_EDGE ( 'NONE', *, *, #235, .F. ) ;
#94 = ORIENTED_EDGE ( 'NONE', *, *, #6, .F. ) ;
#95 = FACE_OUTER_BOUND ( 'NONE', #70, .T. ) ;
#96 = EDGE_CURVE ( 'NONE', #56, #56, #60, .T. ) ;
#97 = FACE_OUTER_BOUND ( 'NONE', #72, .T. ) ;
#98 = EDGE_LOOP ( 'NONE', ( #185 ) ) ;
#99 = APPROVAL ( #20, 'UNSPECIFIED' ) ;
#100 = AXIS2_PLACEMENT_3D ( 'NONE', #65, #24, #221 ) ;
#101 = CARTESIAN_POINT ( 'NONE',  ( 0.0000000000000000000, 0.0000000000000000000, 0.0000000000000000000 ) ) ;
#102 = DIRECTION ( 'NONE',  ( -3.491481338843133355E-15, 1.224646799147353207E-16, -1.000000000000000000 ) ) ;
#103 = DIRECTION ( 'NONE',  ( 3.491481338843133355E-15, -1.224646799147353207E-16, 1.000000000000000000 ) ) ;
#104 = PRODUCT ( '986881', '986881', '', ( #246 ) ) ;
#105 = AXIS2_PLACEMENT_3D ( 'NONE', #82, #33, #151 ) ;
#106 = DIRECTION ( 'NONE',  ( 3.491481338843133355E-15, -1.224646799147353207E-16, 1.000000000000000000 ) ) ;
#107 = VERTEX_POINT ( 'NONE', #157 ) ;
#108 = DIRECTION ( 'NONE',  ( -3.491481338843133355E-15, 1.224646799147353207E-16, -1.000000000000000000 ) ) ;
#109 = PERSON_AND_ORGANIZATION_ROLE ( 'creator' ) ;
#110 = CONICAL_SURFACE ( 'NONE', #114, 0.6000000000000000888, 0.7853981633974450594 ) ;
#111 = COORDINATED_UNIVERSAL_TIME_OFFSET ( 1, 0, .AHEAD. ) ;
#112 = CALENDAR_DATE ( 2021, 16, 12 ) ;
#113 = ADVANCED_FACE ( 'NONE', ( #21 ), #116, .F. ) ;
#114 = AXIS2_PLACEMENT_3D ( 'NONE', #171, #12, #213 ) ;
#115 = ORIENTED_EDGE ( 'NONE', *, *, #96, .F. ) ;
#116 = PLANE ( 'NONE',  #29 ) ;
#117 = APPLICATION_PROTOCOL_DEFINITION ( 'international standard', 'config_control_design', 1994, #80 ) ;
#118 = PERSON_AND_ORGANIZATION ( #212, #248 ) ;
#119 = AXIS2_PLACEMENT_3D ( 'NONE', #188, #271, #209 ) ;
#120 = CARTESIAN_POINT ( 'NONE',  ( 6.038201075205326280E-15, -2.117915836207349071E-16, 1.729409522551256906 ) ) ;
#121 = EDGE_LOOP ( 'NONE', ( #164 ) ) ;
#122 = DATE_TIME_ROLE ( 'creation_date' ) ;
#123 = FACE_OUTER_BOUND ( 'NONE', #137, .T. ) ;
#124 = PERSON_AND_ORGANIZATION_ROLE ( 'design_supplier' ) ;
#125 = FACE_OUTER_BOUND ( 'NONE', #269, .T. ) ;
#126 = VERTEX_POINT ( 'NONE', #200 ) ;
#127 = CARTESIAN_POINT ( 'NONE',  ( 6.038201075205326280E-15, 0.1740370868554643180, 1.729409522551256906 ) ) ;
#128 = CC_DESIGN_PERSON_AND_ORGANIZATION_ASSIGNMENT ( #53, #170, ( #15 ) ) ;
#129 = DATE_AND_TIME ( #149, #195 ) ;
#130 = FACE_OUTER_BOUND ( 'NONE', #98, .T. ) ;
#131 = AXIS2_PLACEMENT_3D ( 'NONE', #11, #73, #167 ) ;
#132 = EDGE_LOOP ( 'NONE', ( #94 ) ) ;
#133 = CC_DESIGN_PERSON_AND_ORGANIZATION_ASSIGNMENT ( #174, #51, ( #227 ) ) ;
#134 = CARTESIAN_POINT ( 'NONE',  ( 3.491481338843133355E-15, -1.224646799147353207E-16, 1.000000000000000000 ) ) ;
#135 = AXIS2_PLACEMENT_3D ( 'NONE', #120, #210, #275 ) ;
#136 = AXIS2_PLACEMENT_3D ( 'NONE', #34, #108, #143 ) ;
#137 = EDGE_LOOP ( 'NONE', ( #90 ) ) ;
#138 = CARTESIAN_POINT ( 'NONE',  ( 0.0000000000000000000, 0.0000000000000000000, 0.0000000000000000000 ) ) ;
#139 = TOROIDAL_SURFACE ( 'NONE', #131, 0.6569999999999996954, 0.5000000000000000000 ) ;
#140 = DIRECTION ( 'NONE',  ( -3.491481338843133355E-15, 1.224646799147353207E-16, -1.000000000000000000 ) ) ;
#141 = ADVANCED_FACE ( 'NONE', ( #28, #97 ), #155, .T. ) ;
#142 = PERSON_AND_ORGANIZATION ( #212, #248 ) ;
#143 = DIRECTION ( 'NONE',  ( 0.0000000000000000000, 1.000000000000000000, 0.0000000000000000000 ) ) ;
#144 = CALENDAR_DATE ( 2021, 16, 12 ) ;
#145 = CARTESIAN_POINT ( 'NONE',  ( 5.586370142149013368E-15, 0.1569999999999994733, 1.599999999999999867 ) ) ;
#146 = CARTESIAN_POINT ( 'NONE',  ( 0.0000000000000000000, 0.0000000000000000000, 0.0000000000000000000 ) ) ;
#147 = APPROVAL_DATE_TIME ( #256, #99 ) ;
#148 = DIRECTION ( 'NONE',  ( -3.491481338843133355E-15, 1.224646799147353207E-16, -1.000000000000000000 ) ) ;
#149 = CALENDAR_DATE ( 2021, 16, 12 ) ;
#150 = DIRECTION ( 'NONE',  ( -4.275831445896958607E-31, -1.000000000000000000, -1.224646799147353207E-16 ) ) ;
#151 = DIRECTION ( 'NONE',  ( 4.275831445896958607E-31, 1.000000000000000000, 1.224646799147353207E-16 ) ) ;
#152 = FACE_BOUND ( 'NONE', #162, .T. ) ;
#153 = ADVANCED_FACE ( 'NONE', ( #47, #238 ), #69, .T. ) ;
#154 = APPROVAL_PERSON_ORGANIZATION ( #168, #186, #26 ) ;
#155 = CYLINDRICAL_SURFACE ( 'NONE', #272, 0.1569999999999996398 ) ;
#156 = MANIFOLD_SOLID_BREP ( 'Corps-Déplacer/Copier1[1]', #40 ) ;
#157 = CARTESIAN_POINT ( 'NONE',  ( 1.042207179644675275E-13, 0.7499999999999962252, 29.84999999999999787 ) ) ;
#158 = EDGE_LOOP ( 'NONE', ( #8 ) ) ;
#159 =( GEOMETRIC_REPRESENTATION_CONTEXT ( 3 ) GLOBAL_UNCERTAINTY_ASSIGNED_CONTEXT ( ( #77 ) ) GLOBAL_UNIT_ASSIGNED_CONTEXT ( ( #14, #16, #263 ) ) REPRESENTATION_CONTEXT ( 'NONE', 'WORKASPACE' ) );
#160 = ADVANCED_FACE ( 'NONE', ( #125, #194 ), #178, .T. ) ;
#161 = AXIS2_PLACEMENT_3D ( 'NONE', #38, #262, #226 ) ;
#162 = EDGE_LOOP ( 'NONE', ( #62 ) ) ;
#163 = APPLICATION_PROTOCOL_DEFINITION ( 'international standard', 'config_control_design', 1994, #204 ) ;
#164 = ORIENTED_EDGE ( 'NONE', *, *, #46, .T. ) ;
#165 = CC_DESIGN_APPROVAL ( #99, ( #15 ) ) ;
#166 = ADVANCED_FACE ( 'NONE', ( #276, #52 ), #255, .T. ) ;
#167 = DIRECTION ( 'NONE',  ( 4.390590712981053363E-31, 1.000000000000000000, 1.224646799147353207E-16 ) ) ;
#168 = PERSON_AND_ORGANIZATION ( #212, #248 ) ;
#169 = DIRECTION ( 'NONE',  ( 3.491481338843133355E-15, -1.224646799147353207E-16, 1.000000000000000000 ) ) ;
#170 = PERSON_AND_ORGANIZATION_ROLE ( 'creator' ) ;
#171 = CARTESIAN_POINT ( 'NONE',  ( 1.047444401652940007E-13, -3.673940397442059178E-15, 30.00000000000000000 ) ) ;
#172 = ORIENTED_EDGE ( 'NONE', *, *, #96, .T. ) ;
#173 = ADVANCED_FACE ( 'NONE', ( #177 ), #258, .F. ) ;
#174 = PERSON_AND_ORGANIZATION ( #212, #248 ) ;
#175 = CIRCLE ( 'NONE', #100, 0.1569999999999996121 ) ;
#176 = PLANE ( 'NONE',  #78 ) ;
#177 = FACE_OUTER_BOUND ( 'NONE', #158, .T. ) ;
#178 = CYLINDRICAL_SURFACE ( 'NONE', #44, 0.1569999999999995566 ) ;
#179 = COORDINATED_UNIVERSAL_TIME_OFFSET ( 1, 0, .AHEAD. ) ;
#180 = DIRECTION ( 'NONE',  ( -6.133534854736439093E-31, -1.000000000000000000, -1.726436580390936026E-16 ) ) ;
#181 = DESIGN_CONTEXT ( 'detailed design', #204, 'design' ) ;
#182 = APPROVAL_STATUS ( 'not_yet_approved' ) ;
#183 = DIRECTION ( 'NONE',  ( -4.275831445896958607E-31, -1.000000000000000000, -1.224646799147353207E-16 ) ) ;
#184 = AXIS2_PLACEMENT_3D ( 'NONE', #59, #102, #282 ) ;
#185 = ORIENTED_EDGE ( 'NONE', *, *, #208, .F. ) ;
#186 = APPROVAL ( #48, 'UNSPECIFIED' ) ;
#187 = EDGE_LOOP ( 'NONE', ( #199 ) ) ;
#188 = CARTESIAN_POINT ( 'NONE',  ( -6.427959656581062448E-32, 2.254624743630626938E-33, -1.841040816993426015E-17 ) ) ;
#189 = AXIS2_PLACEMENT_3D ( 'NONE', #27, #169, #259 ) ;
#190 = ORIENTED_EDGE ( 'NONE', *, *, #6, .T. ) ;
#191 = DIRECTION ( 'NONE',  ( 6.133534854736439093E-31, 1.000000000000000000, 1.726436580390936026E-16 ) ) ;
#192 = PRODUCT_DEFINITION_SHAPE ( 'NONE', 'NONE',  #15 ) ;
#193 = ADVANCED_FACE ( 'NONE', ( #240, #35 ), #224, .T. ) ;
#194 = FACE_OUTER_BOUND ( 'NONE', #228, .T. ) ;
#195 = LOCAL_TIME ( 9, 57, 34.00000000000000000, #216 ) ;
#196 = VERTEX_POINT ( 'NONE', #223 ) ;
#197 = LOCAL_TIME ( 9, 57, 34.00000000000000000, #31 ) ;
#198 = APPROVAL_DATE_TIME ( #222, #186 ) ;
#199 = ORIENTED_EDGE ( 'NONE', *, *, #87, .T. ) ;
#200 = CARTESIAN_POINT ( 'NONE',  ( 1.047444401652940007E-13, 0.5999999999999963141, 30.00000000000000000 ) ) ;
#201 = AXIS2_PLACEMENT_3D ( 'NONE', #146, #32, #79 ) ;
#202 = EDGE_LOOP ( 'NONE', ( #42 ) ) ;
#203 = CARTESIAN_POINT ( 'NONE',  ( 8.078839165149676395E-16, -2.833675326961652728E-17, 0.2313871500692745165 ) ) ;
#204 = APPLICATION_CONTEXT ( 'configuration controlled 3d designs of mechanical parts and assemblies' ) ;
#205 = PERSON_AND_ORGANIZATION_ROLE ( 'design_owner' ) ;
#206 = CIRCLE ( 'NONE', #261, 0.7499999999999998890 ) ;
#207 = CLOSED_SHELL ( 'NONE', ( #267, #193, #160, #58 ) ) ;
#208 = EDGE_CURVE ( 'NONE', #107, #107, #206, .T. ) ;
#209 = DIRECTION ( 'NONE',  ( 4.275831445896958607E-31, 1.000000000000000000, 1.224646799147353207E-16 ) ) ;
#210 = DIRECTION ( 'NONE',  ( -3.491481338843133355E-15, 1.224646799147353207E-16, -1.000000000000000000 ) ) ;
#211 = LOCAL_TIME ( 9, 57, 34.00000000000000000, #179 ) ;
#212 = PERSON ( 'UNSPECIFIED', 'UNSPECIFIED', 'UNSPECIFIED', ('UNSPECIFIED'), ('UNSPECIFIED'), ('UNSPECIFIED') ) ;
#213 = DIRECTION ( 'NONE',  ( 0.0000000000000000000, 1.000000000000000000, 0.0000000000000000000 ) ) ;
#214 = CALENDAR_DATE ( 2021, 16, 12 ) ;
#215 = DIRECTION ( 'NONE',  ( -3.491481338843133355E-15, 1.224646799147353207E-16, -1.000000000000000000 ) ) ;
#216 = COORDINATED_UNIVERSAL_TIME_OFFSET ( 1, 0, .AHEAD. ) ;
#217 = CARTESIAN_POINT ( 'NONE',  ( 3.491481338843133355E-15, 1.177311429389553576E-33, 1.000000000000000000 ) ) ;
#218 = CARTESIAN_POINT ( 'NONE',  ( -2.365919782978951148E-32, 0.09500000000000000111, -6.776263578034402713E-18 ) ) ;
#219 = AXIS2_PLACEMENT_3D ( 'NONE', #134, #61, #3 ) ;
#220 = CARTESIAN_POINT ( 'NONE',  ( 8.078839165149676395E-16, -2.833675326961652728E-17, 0.2313871500692745165 ) ) ;
#221 = DIRECTION ( 'NONE',  ( 0.0000000000000000000, 1.000000000000000000, 0.0000000000000000000 ) ) ;
#222 = DATE_AND_TIME ( #112, #23 ) ;
#223 = CARTESIAN_POINT ( 'NONE',  ( 8.078839165149677382E-16, 0.1569999999999994733, 0.2313871500692745442 ) ) ;
#224 = CONICAL_SURFACE ( 'NONE', #237, 0.1569999999999995011, 0.2617993877991429130 ) ;
#225 = ORIENTED_EDGE ( 'NONE', *, *, #235, .T. ) ;
#226 = DIRECTION ( 'NONE',  ( 0.0000000000000000000, 1.000000000000000000, 0.0000000000000000000 ) ) ;
#227 = SECURITY_CLASSIFICATION ( '', '', #257 ) ;
#228 = EDGE_LOOP ( 'NONE', ( #172 ) ) ;
#229 = ORIENTED_EDGE ( 'NONE', *, *, #41, .T. ) ;
#230 = ADVANCED_FACE ( 'NONE', ( #123, #95 ), #139, .F. ) ;
#231 = DIRECTION ( 'NONE',  ( 0.0000000000000000000, 0.0000000000000000000, 1.000000000000000000 ) ) ;
#232 = CC_DESIGN_APPROVAL ( #186, ( #241 ) ) ;
#233 = ORIENTED_EDGE ( 'NONE', *, *, #87, .F. ) ;
#234 = FACE_OUTER_BOUND ( 'NONE', #22, .T. ) ;
#235 = EDGE_CURVE ( 'NONE', #196, #196, #85, .T. ) ;
#236 = CARTESIAN_POINT ( 'NONE',  ( 1.354322001131143629E-14, -4.750322120437401541E-16, 3.878932377682088095 ) ) ;
#237 = AXIS2_PLACEMENT_3D ( 'NONE', #220, #106, #180 ) ;
#238 = FACE_OUTER_BOUND ( 'NONE', #121, .T. ) ;
#239 = VERTEX_POINT ( 'NONE', #218 ) ;
#240 = FACE_BOUND ( 'NONE', #132, .T. ) ;
#241 = PRODUCT_DEFINITION_FORMATION_WITH_SPECIFIED_SOURCE ( 'ANY', '', #104, .NOT_KNOWN. ) ;
#242 = CC_DESIGN_SECURITY_CLASSIFICATION ( #227, ( #241 ) ) ;
#243 = PERSON_AND_ORGANIZATION ( #212, #248 ) ;
#244 = EDGE_LOOP ( 'NONE', ( #233 ) ) ;
#245 = ORIENTED_EDGE ( 'NONE', *, *, #208, .T. ) ;
#246 = MECHANICAL_CONTEXT ( 'NONE', #80, 'mechanical' ) ;
#247 = EDGE_LOOP ( 'NONE', ( #245 ) ) ;
#248 = ORGANIZATION ( 'UNSPECIFIED', 'UNSPECIFIED', '' ) ;
#249 = MANIFOLD_SOLID_BREP ( 'Corps-Déplacer/Copier1[2]', #207 ) ;
#250 = COORDINATED_UNIVERSAL_TIME_OFFSET ( 1, 0, .AHEAD. ) ;
#251 = DIRECTION ( 'NONE',  ( 0.0000000000000000000, 1.000000000000000000, 0.0000000000000000000 ) ) ;
#252 = CC_DESIGN_APPROVAL ( #270, ( #227 ) ) ;
#253 = APPROVAL_PERSON_ORGANIZATION ( #265, #270, #266 ) ;
#254 = VERTEX_POINT ( 'NONE', #54 ) ;
#255 = CYLINDRICAL_SURFACE ( 'NONE', #201, 0.7499999999999983347 ) ;
#256 = DATE_AND_TIME ( #144, #66 ) ;
#257 = SECURITY_CLASSIFICATION_LEVEL ( 'unclassified' ) ;
#258 = PLANE ( 'NONE',  #105 ) ;
#259 = DIRECTION ( 'NONE',  ( -4.275831445896958607E-31, -1.000000000000000000, -1.224646799147353207E-16 ) ) ;
#260 = SHAPE_DEFINITION_REPRESENTATION ( #192, #2 ) ;
#261 = AXIS2_PLACEMENT_3D ( 'NONE', #43, #140, #251 ) ;
#262 = DIRECTION ( 'NONE',  ( -3.491481338843133355E-15, 1.224646799147353207E-16, -1.000000000000000000 ) ) ;
#263 =( NAMED_UNIT ( * ) SI_UNIT ( $, .STERADIAN. ) SOLID_ANGLE_UNIT ( ) );
#264 = CARTESIAN_POINT ( 'NONE',  ( 3.491481338843133355E-15, 0.1569999999999994733, 1.000000000000000000 ) ) ;
#265 = PERSON_AND_ORGANIZATION ( #212, #248 ) ;
#266 = APPROVAL_ROLE ( '' ) ;
#267 = ADVANCED_FACE ( 'NONE', ( #234 ), #74, .F. ) ;
#268 = EDGE_LOOP ( 'NONE', ( #225 ) ) ;
#269 = EDGE_LOOP ( 'NONE', ( #93 ) ) ;
#270 = APPROVAL ( #182, 'UNSPECIFIED' ) ;
#271 = DIRECTION ( 'NONE',  ( -3.491481338843133355E-15, 1.224646799147353207E-16, -1.000000000000000000 ) ) ;
#272 = AXIS2_PLACEMENT_3D ( 'NONE', #84, #215, #76 ) ;
#273 = EDGE_LOOP ( 'NONE', ( #92 ) ) ;
#274 = DIRECTION ( 'NONE',  ( 1.000000000000000000, 0.0000000000000000000, 0.0000000000000000000 ) ) ;
#275 = DIRECTION ( 'NONE',  ( 0.0000000000000000000, 1.000000000000000000, 0.0000000000000000000 ) ) ;
#276 = FACE_OUTER_BOUND ( 'NONE', #202, .T. ) ;
#277 = FACE_OUTER_BOUND ( 'NONE', #7, .T. ) ;
#278 = AXIS2_PLACEMENT_3D ( 'NONE', #236, #103, #280 ) ;
#279 = DIRECTION ( 'NONE',  ( 3.491481338843133355E-15, -1.224646799147353207E-16, 1.000000000000000000 ) ) ;
#280 = DIRECTION ( 'NONE',  ( 0.0000000000000000000, -1.000000000000000000, 0.0000000000000000000 ) ) ;
#281 = ADVANCED_FACE ( 'NONE', ( #130, #152 ), #110, .T. ) ;
#282 = DIRECTION ( 'NONE',  ( 0.0000000000000000000, 1.000000000000000000, 0.0000000000000000000 ) ) ;
#283 = CIRCLE ( 'NONE', #135, 0.1740370868554645400 ) ;
ENDSEC;
END-ISO-10303-21;
