ISO-10303-21;
HEADER;
FILE_DESCRIPTION (( 'STEP AP203' ),
    '1' );
FILE_NAME ('986521.STEP',
    '2023-01-24T13:59:58',
    ( '' ),
    ( '' ),
    'SwSTEP 2.0',
    'SolidWorks 2019',
    '' );
FILE_SCHEMA (( 'CONFIG_CONTROL_DESIGN' ));
ENDSEC;

DATA;
#1 = APPLICATION_PROTOCOL_DEFINITION ( 'international standard', 'config_control_design', 1994, #74 ) ;
#2 = LOCAL_TIME ( 14, 59, 58.00000000000000000, #169 ) ;
#3 = PERSON_AND_ORGANIZATION ( #217, #215 ) ;
#4 = AXIS2_PLACEMENT_3D ( 'NONE', #118, #186, #162 ) ;
#5 = ADVANCED_FACE ( 'NONE', ( #114 ), #177, .T. ) ;
#6 = APPROVAL_STATUS ( 'not_yet_approved' ) ;
#7 = EDGE_LOOP ( 'NONE', ( #172 ) ) ;
#8 = EDGE_CURVE ( 'NONE', #75, #75, #179, .T. ) ;
#9 = SHAPE_DEFINITION_REPRESENTATION ( #22, #154 ) ;
#10 = FACE_OUTER_BOUND ( 'NONE', #214, .T. ) ;
#11 = AXIS2_PLACEMENT_3D ( 'NONE', #134, #204, #15 ) ;
#12 = CARTESIAN_POINT ( 'NONE',  ( 0.000000000000000000, 0.000000000000000000, 0.000000000000000000 ) ) ;
#13 = CARTESIAN_POINT ( 'NONE',  ( 1.326762908760390423E-13, 8.998558695971077224E-33, 38.00000000000000000 ) ) ;
#14 = EDGE_CURVE ( 'NONE', #109, #109, #68, .T. ) ;
#15 = DIRECTION ( 'NONE',  ( 1.000000000000000000, 0.000000000000000000, -3.717264591378875951E-15 ) ) ;
#16 = AXIS2_PLACEMENT_3D ( 'NONE', #187, #183, #115 ) ;
#17 = DIRECTION ( 'NONE',  ( -3.491481338843133355E-15, 1.224646799147353207E-16, -1.000000000000000000 ) ) ;
#18 = CARTESIAN_POINT ( 'NONE',  ( 1.326762908760390423E-13, 1.199999999999995293, 38.00000000000000000 ) ) ;
#19 = DIRECTION ( 'NONE',  ( 4.275831445896959482E-31, 1.000000000000000000, 1.224646799147353207E-16 ) ) ;
#20 = CARTESIAN_POINT ( 'NONE',  ( 0.000000000000000000, 0.000000000000000000, 0.000000000000000000 ) ) ;
#21 = AXIS2_PLACEMENT_3D ( 'NONE', #86, #87, #52 ) ;
#22 = PRODUCT_DEFINITION_SHAPE ( 'NONE', 'NONE',  #67 ) ;
#23 = CARTESIAN_POINT ( 'NONE',  ( 0.1749999999999989342, 0.000000000000000000, -9.784032740417506262E-16 ) ) ;
#24 = CC_DESIGN_PERSON_AND_ORGANIZATION_ASSIGNMENT ( #107, #57, ( #67 ) ) ;
#25 = APPLICATION_CONTEXT ( 'configuration controlled 3d designs of mechanical parts and assemblies' ) ;
#26 = SECURITY_CLASSIFICATION_LEVEL ( 'unclassified' ) ;
#27 = APPROVAL_DATE_TIME ( #29, #145 ) ;
#28 = COORDINATED_UNIVERSAL_TIME_OFFSET ( 1, 0, .AHEAD. ) ;
#29 = DATE_AND_TIME ( #65, #44 ) ;
#30 = ORIENTED_EDGE ( 'NONE', *, *, #82, .F. ) ;
#31 = APPROVAL_PERSON_ORGANIZATION ( #3, #45, #125 ) ;
#32 = EDGE_LOOP ( 'NONE', ( #178 ) ) ;
#33 = FACE_BOUND ( 'NONE', #7, .T. ) ;
#34 = CLOSED_SHELL ( 'NONE', ( #198, #104, #180, #94, #112 ) ) ;
#35 = FACE_OUTER_BOUND ( 'NONE', #48, .T. ) ;
#36 = FACE_OUTER_BOUND ( 'NONE', #133, .T. ) ;
#37 = CARTESIAN_POINT ( 'NONE',  ( 1.316288464743861212E-13, -4.616918432785521081E-15, 37.69999999999999574 ) ) ;
#38 = AXIS2_PLACEMENT_3D ( 'NONE', #13, #17, #192 ) ;
#39 = CARTESIAN_POINT ( 'NONE',  ( 0.000000000000000000, 0.000000000000000000, 0.000000000000000000 ) ) ;
#40 = UNCERTAINTY_MEASURE_WITH_UNIT (LENGTH_MEASURE( 1.000000000000000082E-05 ), #121, 'distance_accuracy_value', 'NONE');
#41 =( NAMED_UNIT ( * ) PLANE_ANGLE_UNIT ( ) SI_UNIT ( $, .RADIAN. ) );
#42 =( NAMED_UNIT ( * ) SI_UNIT ( $, .STERADIAN. ) SOLID_ANGLE_UNIT ( ) );
#43 = DATE_AND_TIME ( #151, #157 ) ;
#44 = LOCAL_TIME ( 14, 59, 58.00000000000000000, #28 ) ;
#45 = APPROVAL ( #140, 'UNSPECIFIED' ) ;
#46 = PERSON_AND_ORGANIZATION_ROLE ( 'classification_officer' ) ;
#47 = EDGE_LOOP ( 'NONE', ( #158 ) ) ;
#48 = EDGE_LOOP ( 'NONE', ( #128 ) ) ;
#49 = AXIS2_PLACEMENT_3D ( 'NONE', #39, #209, #61 ) ;
#50 = CC_DESIGN_PERSON_AND_ORGANIZATION_ASSIGNMENT ( #174, #212, ( #166 ) ) ;
#51 = CARTESIAN_POINT ( 'NONE',  ( 1.316288464743861212E-13, -4.616918432785521081E-15, 37.69999999999999574 ) ) ;
#52 = DIRECTION ( 'NONE',  ( 1.000000000000000000, 0.000000000000000000, -3.717264591378875951E-15 ) ) ;
#53 = DIRECTION ( 'NONE',  ( 0.000000000000000000, 1.000000000000000000, 0.000000000000000000 ) ) ;
#54 = CC_DESIGN_DATE_AND_TIME_ASSIGNMENT ( #222, #190, ( #67 ) ) ;
#55 = APPROVAL_PERSON_ORGANIZATION ( #127, #145, #63 ) ;
#56 = DIRECTION ( 'NONE',  ( 0.000000000000000000, 1.000000000000000000, 0.000000000000000000 ) ) ;
#57 = PERSON_AND_ORGANIZATION_ROLE ( 'creator' ) ;
#58 = MECHANICAL_CONTEXT ( 'NONE', #74, 'mechanical' ) ;
#59 = COORDINATED_UNIVERSAL_TIME_OFFSET ( 1, 0, .AHEAD. ) ;
#60 = EDGE_CURVE ( 'NONE', #76, #76, #211, .T. ) ;
#61 = DIRECTION ( 'NONE',  ( 1.000000000000000000, 0.000000000000000000, 0.000000000000000000 ) ) ;
#62 = PERSON_AND_ORGANIZATION_ROLE ( 'design_supplier' ) ;
#63 = APPROVAL_ROLE ( '' ) ;
#64 = CC_DESIGN_APPROVAL ( #194, ( #166 ) ) ;
#65 = CALENDAR_DATE ( 2023, 24, 1 ) ;
#66 = DATE_AND_TIME ( #176, #142 ) ;
#67 = PRODUCT_DEFINITION ( 'UNKNOWN', '', #166, #188 ) ;
#68 = CIRCLE ( 'NONE', #191, 0.1749999999999989342 ) ;
#69 = MANIFOLD_SOLID_BREP ( 'Corps-Déplacer/Copier1[1]', #34 ) ;
#70 = MANIFOLD_SOLID_BREP ( 'Corps-Déplacer/Copier1[2]', #170 ) ;
#71 = DIRECTION ( 'NONE',  ( 3.491481338843133355E-15, -0.000000000000000000, 1.000000000000000000 ) ) ;
#72 = EDGE_CURVE ( 'NONE', #90, #90, #173, .T. ) ;
#73 = AXIS2_PLACEMENT_3D ( 'NONE', #20, #123, #19 ) ;
#74 = APPLICATION_CONTEXT ( 'configuration controlled 3d designs of mechanical parts and assemblies' ) ;
#75 = VERTEX_POINT ( 'NONE', #208 ) ;
#76 = VERTEX_POINT ( 'NONE', #18 ) ;
#77 = ORIENTED_EDGE ( 'NONE', *, *, #126, .F. ) ;
#78 = EDGE_LOOP ( 'NONE', ( #79 ) ) ;
#79 = ORIENTED_EDGE ( 'NONE', *, *, #126, .T. ) ;
#80 = CC_DESIGN_APPROVAL ( #145, ( #220 ) ) ;
#81 = EDGE_LOOP ( 'NONE', ( #181 ) ) ;
#82 = EDGE_CURVE ( 'NONE', #210, #210, #138, .T. ) ;
#83 = CARTESIAN_POINT ( 'NONE',  ( 2.444036937190190193E-15, 1.124819836996393616E-32, 0.6999999999999991784 ) ) ;
#84 = PLANE ( 'NONE',  #4 ) ;
#85 = AXIS2_PLACEMENT_3D ( 'NONE', #51, #201, #135 ) ;
#86 = CARTESIAN_POINT ( 'NONE',  ( 2.444036937190190588E-15, 0.000000000000000000, 0.6999999999999992895 ) ) ;
#87 = DIRECTION ( 'NONE',  ( 3.491481338843133355E-15, -0.000000000000000000, 1.000000000000000000 ) ) ;
#88 = PLANE ( 'NONE',  #207 ) ;
#89 = AXIS2_PLACEMENT_3D ( 'NONE', #83, #120, #100 ) ;
#90 = VERTEX_POINT ( 'NONE', #96 ) ;
#91 = CC_DESIGN_PERSON_AND_ORGANIZATION_ASSIGNMENT ( #193, #95, ( #205 ) ) ;
#92 = CARTESIAN_POINT ( 'NONE',  ( -1.499999999999982236, 0.000000000000000000, 5.109577644174100541 ) ) ;
#93 = CC_DESIGN_APPROVAL ( #45, ( #67 ) ) ;
#94 = ADVANCED_FACE ( 'NONE', ( #182, #10 ), #106, .F. ) ;
#95 = PERSON_AND_ORGANIZATION_ROLE ( 'design_owner' ) ;
#96 = CARTESIAN_POINT ( 'NONE',  ( 1.316288464743861212E-13, 1.499999999999995337, 37.69999999999999574 ) ) ;
#97 = PERSON_AND_ORGANIZATION ( #217, #215 ) ;
#98 = EDGE_LOOP ( 'NONE', ( #30 ) ) ;
#99 = ORIENTED_EDGE ( 'NONE', *, *, #8, .T. ) ;
#100 = DIRECTION ( 'NONE',  ( -4.275831445896958607E-31, -1.000000000000000000, -1.224646799147353207E-16 ) ) ;
#101 = LOCAL_TIME ( 14, 59, 58.00000000000000000, #155 ) ;
#102 = PLANE ( 'NONE',  #38 ) ;
#103 = DIRECTION ( 'NONE',  ( 1.000000000000000000, 0.000000000000000000, -3.491481338843134144E-15 ) ) ;
#104 = ADVANCED_FACE ( 'NONE', ( #33, #36 ), #167, .T. ) ;
#105 = DIRECTION ( 'NONE',  ( 4.275831445896958607E-31, 1.000000000000000000, 1.224646799147353207E-16 ) ) ;
#106 = TOROIDAL_SURFACE ( 'NONE', #110, 8.175000000000002487, 8.000000000000000000 ) ;
#107 = PERSON_AND_ORGANIZATION ( #217, #215 ) ;
#108 = APPROVAL_ROLE ( '' ) ;
#109 = VERTEX_POINT ( 'NONE', #23 ) ;
#110 = AXIS2_PLACEMENT_3D ( 'NONE', #200, #137, #116 ) ;
#111 = APPROVAL_DATE_TIME ( #43, #45 ) ;
#112 = ADVANCED_FACE ( 'NONE', ( #146 ), #84, .F. ) ;
#113 = CIRCLE ( 'NONE', #11, 0.1749999999999998224 ) ;
#114 = FACE_OUTER_BOUND ( 'NONE', #78, .T. ) ;
#115 = DIRECTION ( 'NONE',  ( -1.000000000000000000, 0.000000000000000000, 3.469446951953614189E-15 ) ) ;
#116 = DIRECTION ( 'NONE',  ( 1.000000000000000000, 0.000000000000000000, -3.491481338843133355E-15 ) ) ;
#117 = CARTESIAN_POINT ( 'NONE',  ( -3.206873584422719393E-31, 1.124819836996393206E-32, -9.184850993605149670E-17 ) ) ;
#118 = CARTESIAN_POINT ( 'NONE',  ( 2.444036937190190193E-15, 1.124819836996393616E-32, 0.6999999999999991784 ) ) ;
#119 = ADVANCED_FACE ( 'NONE', ( #165 ), #88, .T. ) ;
#120 = DIRECTION ( 'NONE',  ( 3.491481338843133355E-15, -1.224646799147353207E-16, 1.000000000000000000 ) ) ;
#121 =( LENGTH_UNIT ( ) NAMED_UNIT ( * ) SI_UNIT ( .MILLI., .METRE. ) );
#122 = CYLINDRICAL_SURFACE ( 'NONE', #73, 1.500000000000000000 ) ;
#123 = DIRECTION ( 'NONE',  ( -3.491481338843133355E-15, 1.224646799147353207E-16, -1.000000000000000000 ) ) ;
#124 = AXIS2_PLACEMENT_3D ( 'NONE', #203, #218, #56 ) ;
#125 = APPROVAL_ROLE ( '' ) ;
#126 = EDGE_CURVE ( 'NONE', #168, #168, #113, .T. ) ;
#127 = PERSON_AND_ORGANIZATION ( #217, #215 ) ;
#128 = ORIENTED_EDGE ( 'NONE', *, *, #60, .F. ) ;
#129 = CALENDAR_DATE ( 2023, 24, 1 ) ;
#130 = ORIENTED_EDGE ( 'NONE', *, *, #72, .T. ) ;
#131 = PRODUCT_RELATED_PRODUCT_CATEGORY ( 'detail', '', ( #205 ) ) ;
#132 = PERSON_AND_ORGANIZATION ( #217, #215 ) ;
#133 = EDGE_LOOP ( 'NONE', ( #213 ) ) ;
#134 = CARTESIAN_POINT ( 'NONE',  ( 2.444036937190190588E-15, 0.000000000000000000, 0.6999999999999992895 ) ) ;
#135 = DIRECTION ( 'NONE',  ( 0.000000000000000000, 1.000000000000000000, 0.000000000000000000 ) ) ;
#136 = CARTESIAN_POINT ( 'NONE',  ( -1.282749433769087582E-30, 0.000000000000000000, -3.673940397442059375E-16 ) ) ;
#137 = DIRECTION ( 'NONE',  ( 3.491481338843133355E-15, -0.000000000000000000, 1.000000000000000000 ) ) ;
#138 = CIRCLE ( 'NONE', #16, 1.500000000000000000 ) ;
#139 = CARTESIAN_POINT ( 'NONE',  ( 0.1750000000000022371, 0.000000000000000000, 0.6999999999999986233 ) ) ;
#140 = APPROVAL_STATUS ( 'not_yet_approved' ) ;
#141 = EDGE_LOOP ( 'NONE', ( #160 ) ) ;
#142 = LOCAL_TIME ( 14, 59, 58.00000000000000000, #143 ) ;
#143 = COORDINATED_UNIVERSAL_TIME_OFFSET ( 1, 0, .AHEAD. ) ;
#144 = FACE_OUTER_BOUND ( 'NONE', #175, .T. ) ;
#145 = APPROVAL ( #6, 'UNSPECIFIED' ) ;
#146 = FACE_OUTER_BOUND ( 'NONE', #47, .T. ) ;
#147 = CC_DESIGN_PERSON_AND_ORGANIZATION_ASSIGNMENT ( #97, #62, ( #166 ) ) ;
#148 = DIRECTION ( 'NONE',  ( -3.491481338843133355E-15, 1.224646799147353207E-16, -1.000000000000000000 ) ) ;
#149 = FACE_OUTER_BOUND ( 'NONE', #32, .T. ) ;
#150 = APPROVAL_PERSON_ORGANIZATION ( #152, #194, #108 ) ;
#151 = CALENDAR_DATE ( 2023, 24, 1 ) ;
#152 = PERSON_AND_ORGANIZATION ( #217, #215 ) ;
#153 = FACE_OUTER_BOUND ( 'NONE', #197, .T. ) ;
#154 = ADVANCED_BREP_SHAPE_REPRESENTATION ( '986521', ( #69, #70, #49 ), #184 ) ;
#155 = COORDINATED_UNIVERSAL_TIME_OFFSET ( 1, 0, .AHEAD. ) ;
#156 = ADVANCED_FACE ( 'NONE', ( #149, #144 ), #185, .T. ) ;
#157 = LOCAL_TIME ( 14, 59, 58.00000000000000000, #59 ) ;
#158 = ORIENTED_EDGE ( 'NONE', *, *, #8, .F. ) ;
#159 = AXIS2_PLACEMENT_3D ( 'NONE', #37, #148, #53 ) ;
#160 = ORIENTED_EDGE ( 'NONE', *, *, #82, .T. ) ;
#161 = AXIS2_PLACEMENT_3D ( 'NONE', #12, #71, #221 ) ;
#162 = DIRECTION ( 'NONE',  ( -4.275831445896958607E-31, -1.000000000000000000, -1.224646799147353207E-16 ) ) ;
#163 = CC_DESIGN_PERSON_AND_ORGANIZATION_ASSIGNMENT ( #132, #46, ( #220 ) ) ;
#164 = DIRECTION ( 'NONE',  ( 3.491481338843133355E-15, -0.000000000000000000, 1.000000000000000000 ) ) ;
#165 = FACE_OUTER_BOUND ( 'NONE', #81, .T. ) ;
#166 = PRODUCT_DEFINITION_FORMATION_WITH_SPECIFIED_SOURCE ( 'ANY', '', #205, .NOT_KNOWN. ) ;
#167 = CONICAL_SURFACE ( 'NONE', #159, 1.499999999999999778, 0.7853981633974453924 ) ;
#168 = VERTEX_POINT ( 'NONE', #139 ) ;
#169 = COORDINATED_UNIVERSAL_TIME_OFFSET ( 1, 0, .AHEAD. ) ;
#170 = CLOSED_SHELL ( 'NONE', ( #5, #156, #119 ) ) ;
#171 = APPLICATION_PROTOCOL_DEFINITION ( 'international standard', 'config_control_design', 1994, #25 ) ;
#172 = ORIENTED_EDGE ( 'NONE', *, *, #60, .T. ) ;
#173 = CIRCLE ( 'NONE', #85, 1.499999999999999778 ) ;
#174 = PERSON_AND_ORGANIZATION ( #217, #215 ) ;
#175 = EDGE_LOOP ( 'NONE', ( #77 ) ) ;
#176 = CALENDAR_DATE ( 2023, 24, 1 ) ;
#177 = PLANE ( 'NONE',  #89 ) ;
#178 = ORIENTED_EDGE ( 'NONE', *, *, #14, .T. ) ;
#179 = CIRCLE ( 'NONE', #21, 0.1749999999999998224 ) ;
#180 = ADVANCED_FACE ( 'NONE', ( #35 ), #102, .F. ) ;
#181 = ORIENTED_EDGE ( 'NONE', *, *, #14, .F. ) ;
#182 = FACE_OUTER_BOUND ( 'NONE', #98, .T. ) ;
#183 = DIRECTION ( 'NONE',  ( 3.491481338843133355E-15, -0.000000000000000000, 1.000000000000000000 ) ) ;
#184 =( GEOMETRIC_REPRESENTATION_CONTEXT ( 3 ) GLOBAL_UNCERTAINTY_ASSIGNED_CONTEXT ( ( #40 ) ) GLOBAL_UNIT_ASSIGNED_CONTEXT ( ( #121, #41, #42 ) ) REPRESENTATION_CONTEXT ( 'NONE', 'WORKASPACE' ) );
#185 = CYLINDRICAL_SURFACE ( 'NONE', #161, 0.1749999999999993783 ) ;
#186 = DIRECTION ( 'NONE',  ( 3.491481338843133355E-15, -1.224646799147353207E-16, 1.000000000000000000 ) ) ;
#187 = CARTESIAN_POINT ( 'NONE',  ( 1.783999499400391608E-14, 0.000000000000000000, 5.109577644174096100 ) ) ;
#188 = DESIGN_CONTEXT ( 'detailed design', #25, 'design' ) ;
#189 = CC_DESIGN_DATE_AND_TIME_ASSIGNMENT ( #66, #199, ( #220 ) ) ;
#190 = DATE_TIME_ROLE ( 'creation_date' ) ;
#191 = AXIS2_PLACEMENT_3D ( 'NONE', #136, #164, #103 ) ;
#192 = DIRECTION ( 'NONE',  ( 4.275831445896958607E-31, 1.000000000000000000, 1.224646799147353207E-16 ) ) ;
#193 = PERSON_AND_ORGANIZATION ( #217, #215 ) ;
#194 = APPROVAL ( #223, 'UNSPECIFIED' ) ;
#195 = CALENDAR_DATE ( 2023, 24, 1 ) ;
#196 = APPROVAL_DATE_TIME ( #216, #194 ) ;
#197 = EDGE_LOOP ( 'NONE', ( #130 ) ) ;
#198 = ADVANCED_FACE ( 'NONE', ( #153, #206 ), #122, .T. ) ;
#199 = DATE_TIME_ROLE ( 'classification_date' ) ;
#200 = CARTESIAN_POINT ( 'NONE',  ( 2.444036937190190588E-15, 0.000000000000000000, 0.6999999999999992895 ) ) ;
#201 = DIRECTION ( 'NONE',  ( -3.491481338843133355E-15, 1.224646799147353207E-16, -1.000000000000000000 ) ) ;
#202 = CC_DESIGN_SECURITY_CLASSIFICATION ( #220, ( #166 ) ) ;
#203 = CARTESIAN_POINT ( 'NONE',  ( 1.326762908760390423E-13, -4.653657836759941941E-15, 38.00000000000000000 ) ) ;
#204 = DIRECTION ( 'NONE',  ( 3.491481338843133355E-15, -0.000000000000000000, 1.000000000000000000 ) ) ;
#205 = PRODUCT ( '986521', '986521', '', ( #58 ) ) ;
#206 = FACE_OUTER_BOUND ( 'NONE', #141, .T. ) ;
#207 = AXIS2_PLACEMENT_3D ( 'NONE', #117, #219, #105 ) ;
#208 = CARTESIAN_POINT ( 'NONE',  ( 0.1750000000000022371, 0.000000000000000000, 0.6999999999999986233 ) ) ;
#209 = DIRECTION ( 'NONE',  ( 0.000000000000000000, 0.000000000000000000, 1.000000000000000000 ) ) ;
#210 = VERTEX_POINT ( 'NONE', #92 ) ;
#211 = CIRCLE ( 'NONE', #124, 1.199999999999999956 ) ;
#212 = PERSON_AND_ORGANIZATION_ROLE ( 'creator' ) ;
#213 = ORIENTED_EDGE ( 'NONE', *, *, #72, .F. ) ;
#214 = EDGE_LOOP ( 'NONE', ( #99 ) ) ;
#215 = ORGANIZATION ( 'UNSPECIFIED', 'UNSPECIFIED', '' ) ;
#216 = DATE_AND_TIME ( #129, #2 ) ;
#217 = PERSON ( 'UNSPECIFIED', 'UNSPECIFIED', 'UNSPECIFIED', ('UNSPECIFIED'), ('UNSPECIFIED'), ('UNSPECIFIED') ) ;
#218 = DIRECTION ( 'NONE',  ( -3.491481338843133355E-15, 1.224646799147353207E-16, -1.000000000000000000 ) ) ;
#219 = DIRECTION ( 'NONE',  ( -3.491481338843133355E-15, 1.224646799147353207E-16, -1.000000000000000000 ) ) ;
#220 = SECURITY_CLASSIFICATION ( '', '', #26 ) ;
#221 = DIRECTION ( 'NONE',  ( 1.000000000000000000, 0.000000000000000000, -3.491481338843133355E-15 ) ) ;
#222 = DATE_AND_TIME ( #195, #101 ) ;
#223 = APPROVAL_STATUS ( 'not_yet_approved' ) ;
ENDSEC;
END-ISO-10303-21;
