ISO-10303-21;
HEADER;
FILE_DESCRIPTION (( 'STEP AP203' ),
    '1' );
FILE_NAME ('985826.step',
    '2021-11-30T06:45:19',
    ( '' ),
    ( '' ),
    'SwSTEP 2.0',
    'SolidWorks 2019',
    '' );
FILE_SCHEMA (( 'CONFIG_CONTROL_DESIGN' ));
ENDSEC;

DATA;
#1 = PERSON_AND_ORGANIZATION_ROLE ( 'creator' ) ;
#2 = ORIENTED_EDGE ( 'NONE', *, *, #182, .T. ) ;
#3 = APPROVAL_PERSON_ORGANIZATION ( #176, #206, #247 ) ;
#4 = ADVANCED_FACE ( 'NONE', ( #245, #215 ), #140, .F. ) ;
#5 = CARTESIAN_POINT ( 'NONE',  ( -6.186365132921282143E-31, 2.169884791908727496E-32, -1.771845395275997906E-16 ) ) ;
#6 = ADVANCED_FACE ( 'NONE', ( #54, #214 ), #126, .T. ) ;
#7 = ORIENTED_EDGE ( 'NONE', *, *, #31, .T. ) ;
#8 = AXIS2_PLACEMENT_3D ( 'NONE', #200, #299, #106 ) ;
#9 = CC_DESIGN_APPROVAL ( #47, ( #224 ) ) ;
#10 = APPROVAL_DATE_TIME ( #131, #47 ) ;
#11 = CARTESIAN_POINT ( 'NONE',  ( 7.345718736475924051E-14, -2.576531295751585890E-15, 21.03897464595887712 ) ) ;
#12 = CARTESIAN_POINT ( 'NONE',  ( 8.728703347107829444E-16, -3.061616997868381785E-17, 0.2499999999999998890 ) ) ;
#13 = ADVANCED_FACE ( 'NONE', ( #265, #286 ), #261, .T. ) ;
#14 = COORDINATED_UNIVERSAL_TIME_OFFSET ( 1, 0, .AHEAD. ) ;
#15 = FACE_OUTER_BOUND ( 'NONE', #291, .T. ) ;
#16 = DIRECTION ( 'NONE',  ( 0.0000000000000000000, 1.000000000000000000, 0.0000000000000000000 ) ) ;
#17 = CARTESIAN_POINT ( 'NONE',  ( 6.405924284287273902E-14, -2.246895775456748746E-15, 18.34729635533384240 ) ) ;
#18 = EDGE_CURVE ( 'NONE', #28, #28, #36, .T. ) ;
#19 = APPLICATION_PROTOCOL_DEFINITION ( 'international standard', 'config_control_design', 1994, #280 ) ;
#20 = AXIS2_PLACEMENT_3D ( 'NONE', #17, #88, #179 ) ;
#21 = CARTESIAN_POINT ( 'NONE',  ( 2.793185071074506684E-14, 1.148499999999993859, 8.000000000000000000 ) ) ;
#22 = DATE_AND_TIME ( #203, #98 ) ;
#23 = LOCAL_TIME ( 7, 45, 19.00000000000000000, #77 ) ;
#24 = APPLICATION_CONTEXT ( 'configuration controlled 3d designs of mechanical parts and assemblies' ) ;
#25 = CARTESIAN_POINT ( 'NONE',  ( 6.284666409917640040E-14, 0.9949999999999976641, 18.00000000000000000 ) ) ;
#26 = EDGE_CURVE ( 'NONE', #123, #123, #59, .T. ) ;
#27 = ORIENTED_EDGE ( 'NONE', *, *, #302, .F. ) ;
#28 = VERTEX_POINT ( 'NONE', #183 ) ;
#29 = ORIENTED_EDGE ( 'NONE', *, *, #138, .F. ) ;
#30 = EDGE_LOOP ( 'NONE', ( #29 ) ) ;
#31 = EDGE_CURVE ( 'NONE', #113, #113, #174, .T. ) ;
#32 = PERSON_AND_ORGANIZATION ( #283, #259 ) ;
#33 = EDGE_LOOP ( 'NONE', ( #263 ) ) ;
#34 = DATE_TIME_ROLE ( 'classification_date' ) ;
#35 = DIRECTION ( 'NONE',  ( 4.275831445896958607E-31, 1.000000000000000000, 1.224646799147353207E-16 ) ) ;
#36 = CIRCLE ( 'NONE', #285, 1.148499999999994969 ) ;
#37 = AXIS2_PLACEMENT_3D ( 'NONE', #164, #204, #257 ) ;
#38 = SECURITY_CLASSIFICATION_LEVEL ( 'unclassified' ) ;
#39 = DIRECTION ( 'NONE',  ( -3.491481338843133355E-15, 1.224646799147353207E-16, -1.000000000000000000 ) ) ;
#40 = CALENDAR_DATE ( 2021, 30, 11 ) ;
#41 = FACE_OUTER_BOUND ( 'NONE', #170, .T. ) ;
#42 = DIRECTION ( 'NONE',  ( -3.491481338843133355E-15, 1.224646799147353207E-16, -1.000000000000000000 ) ) ;
#43 = DIRECTION ( 'NONE',  ( -5.030726889997160278E-31, -1.000000000000000000, -1.416023734199621578E-16 ) ) ;
#44 = DIRECTION ( 'NONE',  ( -4.275831445896958607E-31, -1.000000000000000000, -1.224646799147353207E-16 ) ) ;
#45 = CARTESIAN_POINT ( 'NONE',  ( 1.735266225405037467E-13, 1.499999999999995559, 49.70000000000000284 ) ) ;
#46 = AXIS2_PLACEMENT_3D ( 'NONE', #112, #110, #63 ) ;
#47 = APPROVAL ( #107, 'UNSPECIFIED' ) ;
#48 = CARTESIAN_POINT ( 'NONE',  ( 7.345718736475924051E-14, 1.499999999999994005, 21.03897464595887712 ) ) ;
#49 = EDGE_CURVE ( 'NONE', #69, #69, #71, .T. ) ;
#50 = DIRECTION ( 'NONE',  ( -3.491481338843133355E-15, 1.224646799147353207E-16, -1.000000000000000000 ) ) ;
#51 =( NAMED_UNIT ( * ) SI_UNIT ( $, .STERADIAN. ) SOLID_ANGLE_UNIT ( ) );
#52 = ORIENTED_EDGE ( 'NONE', *, *, #18, .F. ) ;
#53 = CONICAL_SURFACE ( 'NONE', #296, 1.499999999999996669, 0.1745329251994265363 ) ;
#54 = FACE_OUTER_BOUND ( 'NONE', #243, .T. ) ;
#55 = CALENDAR_DATE ( 2021, 30, 11 ) ;
#56 = EDGE_LOOP ( 'NONE', ( #166 ) ) ;
#57 = EDGE_LOOP ( 'NONE', ( #105 ) ) ;
#58 = FACE_OUTER_BOUND ( 'NONE', #191, .T. ) ;
#59 = CIRCLE ( 'NONE', #97, 1.004162432702589536 ) ;
#60 = AXIS2_PLACEMENT_3D ( 'NONE', #202, #130, #44 ) ;
#61 = ADVANCED_FACE ( 'NONE', ( #220 ), #279, .F. ) ;
#62 = CARTESIAN_POINT ( 'NONE',  ( 2.793185071074506684E-14, -9.797174393178825657E-16, 8.000000000000000000 ) ) ;
#63 = DIRECTION ( 'NONE',  ( 0.0000000000000000000, 1.000000000000000000, 0.0000000000000000000 ) ) ;
#64 = DIRECTION ( 'NONE',  ( 0.0000000000000000000, 1.000000000000000000, 0.0000000000000000000 ) ) ;
#65 = AXIS2_PLACEMENT_3D ( 'NONE', #172, #297, #228 ) ;
#66 = DIRECTION ( 'NONE',  ( 0.0000000000000000000, 1.000000000000000000, 0.0000000000000000000 ) ) ;
#67 = CC_DESIGN_DATE_AND_TIME_ASSIGNMENT ( #173, #34, ( #248 ) ) ;
#68 = VERTEX_POINT ( 'NONE', #48 ) ;
#69 = VERTEX_POINT ( 'NONE', #160 ) ;
#70 = ADVANCED_FACE ( 'NONE', ( #157 ), #155, .F. ) ;
#71 = CIRCLE ( 'NONE', #212, 0.9949999999999988853 ) ;
#72 = AXIS2_PLACEMENT_3D ( 'NONE', #180, #294, #84 ) ;
#73 = EDGE_LOOP ( 'NONE', ( #128 ) ) ;
#74 = CARTESIAN_POINT ( 'NONE',  ( 6.405924284287273902E-14, 1.025384493975577405, 18.34729635533384240 ) ) ;
#75 = EDGE_LOOP ( 'NONE', ( #2 ) ) ;
#76 = ORIENTED_EDGE ( 'NONE', *, *, #26, .T. ) ;
#77 = COORDINATED_UNIVERSAL_TIME_OFFSET ( 1, 0, .AHEAD. ) ;
#78 = AXIS2_PLACEMENT_3D ( 'NONE', #175, #273, #66 ) ;
#79 = ORIENTED_EDGE ( 'NONE', *, *, #31, .F. ) ;
#80 = EDGE_LOOP ( 'NONE', ( #79 ) ) ;
#81 = APPROVAL_DATE_TIME ( #102, #206 ) ;
#82 = DIRECTION ( 'NONE',  ( -3.491481338843133355E-15, 1.224646799147353207E-16, -1.000000000000000000 ) ) ;
#83 = ADVANCED_FACE ( 'NONE', ( #58, #253 ), #156, .T. ) ;
#84 = DIRECTION ( 'NONE',  ( 0.0000000000000000000, 1.000000000000000000, 0.0000000000000000000 ) ) ;
#85 = AXIS2_PLACEMENT_3D ( 'NONE', #270, #252, #87 ) ;
#86 = CALENDAR_DATE ( 2021, 30, 11 ) ;
#87 = DIRECTION ( 'NONE',  ( -4.275831445896958607E-31, -1.000000000000000000, -1.224646799147353207E-16 ) ) ;
#88 = DIRECTION ( 'NONE',  ( -3.491481338843133355E-15, 1.224646799147353207E-16, -1.000000000000000000 ) ) ;
#89 = DIRECTION ( 'NONE',  ( 4.275831445896958607E-31, 1.000000000000000000, 1.224646799147353207E-16 ) ) ;
#90 = CC_DESIGN_PERSON_AND_ORGANIZATION_ASSIGNMENT ( #169, #295, ( #248 ) ) ;
#91 =( NAMED_UNIT ( * ) PLANE_ANGLE_UNIT ( ) SI_UNIT ( $, .RADIAN. ) );
#92 = CARTESIAN_POINT ( 'NONE',  ( 8.728703347107835360E-16, 1.148499999999993859, 0.2500000000000000555 ) ) ;
#93 = COORDINATED_UNIVERSAL_TIME_OFFSET ( 1, 0, .AHEAD. ) ;
#94 =( GEOMETRIC_REPRESENTATION_CONTEXT ( 3 ) GLOBAL_UNCERTAINTY_ASSIGNED_CONTEXT ( ( #186 ) ) GLOBAL_UNIT_ASSIGNED_CONTEXT ( ( #189, #91, #51 ) ) REPRESENTATION_CONTEXT ( 'NONE', 'WORKASPACE' ) );
#95 = CARTESIAN_POINT ( 'NONE',  ( 0.0000000000000000000, 0.0000000000000000000, 0.0000000000000000000 ) ) ;
#96 = CARTESIAN_POINT ( 'NONE',  ( 8.728703347107829444E-16, -3.061616997868381785E-17, 0.2499999999999998890 ) ) ;
#97 = AXIS2_PLACEMENT_3D ( 'NONE', #5, #268, #89 ) ;
#98 = LOCAL_TIME ( 7, 45, 19.00000000000000000, #93 ) ;
#99 = CARTESIAN_POINT ( 'NONE',  ( 2.793185071074506684E-14, -9.797174393178825657E-16, 8.000000000000000000 ) ) ;
#100 = DIRECTION ( 'NONE',  ( -3.491481338843133355E-15, 1.224646799147353207E-16, -1.000000000000000000 ) ) ;
#101 = DIRECTION ( 'NONE',  ( 0.0000000000000000000, 1.000000000000000000, 0.0000000000000000000 ) ) ;
#102 = DATE_AND_TIME ( #250, #181 ) ;
#103 = PRODUCT_DEFINITION ( 'UNKNOWN', '', #224, #226 ) ;
#104 = DIRECTION ( 'NONE',  ( -3.491481338843133355E-15, 1.224646799147353207E-16, -1.000000000000000000 ) ) ;
#105 = ORIENTED_EDGE ( 'NONE', *, *, #120, .T. ) ;
#106 = DIRECTION ( 'NONE',  ( 0.0000000000000000000, 1.000000000000000000, 0.0000000000000000000 ) ) ;
#107 = APPROVAL_STATUS ( 'not_yet_approved' ) ;
#108 = DIRECTION ( 'NONE',  ( -3.491481338843133355E-15, 1.224646799147353207E-16, -1.000000000000000000 ) ) ;
#109 = PERSON_AND_ORGANIZATION_ROLE ( 'creator' ) ;
#110 = DIRECTION ( 'NONE',  ( -3.491481338843133355E-15, 1.224646799147353207E-16, -1.000000000000000000 ) ) ;
#111 = DIRECTION ( 'NONE',  ( -3.491481338843133355E-15, 1.224646799147353207E-16, -1.000000000000000000 ) ) ;
#112 = CARTESIAN_POINT ( 'NONE',  ( 6.284666409917640040E-14, -2.204364238465235428E-15, 18.00000000000000000 ) ) ;
#113 = VERTEX_POINT ( 'NONE', #25 ) ;
#114 = CLOSED_SHELL ( 'NONE', ( #70, #116, #83, #4, #227, #13, #158, #284 ) ) ;
#115 = APPROVAL_ROLE ( '' ) ;
#116 = ADVANCED_FACE ( 'NONE', ( #256, #225 ), #147, .T. ) ;
#117 = APPROVAL_DATE_TIME ( #22, #177 ) ;
#118 = AXIS2_PLACEMENT_3D ( 'NONE', #62, #111, #178 ) ;
#119 = CC_DESIGN_APPROVAL ( #206, ( #248 ) ) ;
#120 = EDGE_CURVE ( 'NONE', #260, #260, #240, .T. ) ;
#121 = CARTESIAN_POINT ( 'NONE',  ( 0.0000000000000000000, 0.0000000000000000000, 0.0000000000000000000 ) ) ;
#122 = DIRECTION ( 'NONE',  ( -3.491481338843133355E-15, 1.224646799147353207E-16, -1.000000000000000000 ) ) ;
#123 = VERTEX_POINT ( 'NONE', #184 ) ;
#124 = EDGE_LOOP ( 'NONE', ( #292 ) ) ;
#125 = PRODUCT_RELATED_PRODUCT_CATEGORY ( 'detail', '', ( #251 ) ) ;
#126 = CYLINDRICAL_SURFACE ( 'NONE', #277, 1.148499999999994525 ) ;
#127 = APPROVAL_ROLE ( '' ) ;
#128 = ORIENTED_EDGE ( 'NONE', *, *, #18, .T. ) ;
#129 = CARTESIAN_POINT ( 'NONE',  ( 0.0000000000000000000, 0.0000000000000000000, 0.0000000000000000000 ) ) ;
#130 = DIRECTION ( 'NONE',  ( 3.491481338843133355E-15, -1.224646799147353207E-16, 1.000000000000000000 ) ) ;
#131 = DATE_AND_TIME ( #86, #209 ) ;
#132 = FACE_BOUND ( 'NONE', #163, .T. ) ;
#133 = DIRECTION ( 'NONE',  ( 4.275831445896958607E-31, 1.000000000000000000, 1.224646799147353207E-16 ) ) ;
#134 = AXIS2_PLACEMENT_3D ( 'NONE', #95, #50, #144 ) ;
#135 = MANIFOLD_SOLID_BREP ( 'Corps-Déplacer/Copier1[1]', #114 ) ;
#136 = DIRECTION ( 'NONE',  ( 3.491481338843133355E-15, -1.224646799147353207E-16, 1.000000000000000000 ) ) ;
#137 = FACE_BOUND ( 'NONE', #56, .T. ) ;
#138 = EDGE_CURVE ( 'NONE', #303, #303, #254, .T. ) ;
#139 = VERTEX_POINT ( 'NONE', #92 ) ;
#140 = TOROIDAL_SURFACE ( 'NONE', #199, 2.994999999999999662, 2.000000000000000000 ) ;
#141 = VERTEX_POINT ( 'NONE', #45 ) ;
#142 = CC_DESIGN_APPROVAL ( #177, ( #103 ) ) ;
#143 = CC_DESIGN_PERSON_AND_ORGANIZATION_ASSIGNMENT ( #244, #109, ( #224 ) ) ;
#144 = DIRECTION ( 'NONE',  ( 4.275831445896958607E-31, 1.000000000000000000, 1.224646799147353454E-16 ) ) ;
#145 = ORIENTED_EDGE ( 'NONE', *, *, #234, .F. ) ;
#146 = MANIFOLD_SOLID_BREP ( 'Corps-Déplacer/Copier1[2]', #281 ) ;
#147 = CONICAL_SURFACE ( 'NONE', #208, 0.9949999999999988853, 0.5235987755982941527 ) ;
#148 = DIRECTION ( 'NONE',  ( -3.491481338843133355E-15, 1.224646799147353207E-16, -1.000000000000000000 ) ) ;
#149 = ORIENTED_EDGE ( 'NONE', *, *, #26, .F. ) ;
#150 = ORIENTED_EDGE ( 'NONE', *, *, #302, .T. ) ;
#151 = PERSON_AND_ORGANIZATION_ROLE ( 'design_supplier' ) ;
#152 = APPROVAL_PERSON_ORGANIZATION ( #32, #47, #127 ) ;
#153 = CARTESIAN_POINT ( 'NONE',  ( 2.886013015238223353E-14, -1.012277099146736572E-15, 8.265869798961819725 ) ) ;
#154 = FACE_BOUND ( 'NONE', #57, .T. ) ;
#155 = PLANE ( 'NONE',  #85 ) ;
#156 = CYLINDRICAL_SURFACE ( 'NONE', #246, 0.9949999999999993294 ) ;
#157 = FACE_OUTER_BOUND ( 'NONE', #73, .T. ) ;
#158 = ADVANCED_FACE ( 'NONE', ( #41, #154 ), #161, .T. ) ;
#159 = APPLICATION_PROTOCOL_DEFINITION ( 'international standard', 'config_control_design', 1994, #24 ) ;
#160 = CARTESIAN_POINT ( 'NONE',  ( 2.886013015238223353E-14, 0.9949999999999978861, 8.265869798961819725 ) ) ;
#161 = CONICAL_SURFACE ( 'NONE', #233, 1.200000000000001732, 0.7853981633974453924 ) ;
#162 = AXIS2_PLACEMENT_3D ( 'NONE', #12, #196, #43 ) ;
#163 = EDGE_LOOP ( 'NONE', ( #149 ) ) ;
#164 = CARTESIAN_POINT ( 'NONE',  ( 1.745740669421566678E-13, 8.998558695971067645E-33, 50.00000000000000000 ) ) ;
#165 = EDGE_CURVE ( 'NONE', #68, #68, #192, .T. ) ;
#166 = ORIENTED_EDGE ( 'NONE', *, *, #182, .F. ) ;
#167 = PERSON_AND_ORGANIZATION_ROLE ( 'design_owner' ) ;
#168 = EDGE_LOOP ( 'NONE', ( #76 ) ) ;
#169 = PERSON_AND_ORGANIZATION ( #283, #259 ) ;
#170 = EDGE_LOOP ( 'NONE', ( #145 ) ) ;
#171 = ORIENTED_EDGE ( 'NONE', *, *, #234, .T. ) ;
#172 = CARTESIAN_POINT ( 'NONE',  ( -3.093182566460641072E-31, 1.084942395954363748E-32, -8.859226976379989529E-17 ) ) ;
#173 = DATE_AND_TIME ( #55, #23 ) ;
#174 = CIRCLE ( 'NONE', #46, 0.9949999999999997735 ) ;
#175 = CARTESIAN_POINT ( 'NONE',  ( 1.745740669421566678E-13, -6.123233995736766085E-15, 50.00000000000000000 ) ) ;
#176 = PERSON_AND_ORGANIZATION ( #283, #259 ) ;
#177 = APPROVAL ( #229, 'UNSPECIFIED' ) ;
#178 = DIRECTION ( 'NONE',  ( 0.0000000000000000000, 1.000000000000000000, 0.0000000000000000000 ) ) ;
#179 = DIRECTION ( 'NONE',  ( 0.0000000000000000000, 1.000000000000000000, 0.0000000000000000000 ) ) ;
#180 = CARTESIAN_POINT ( 'NONE',  ( 1.735266225405037467E-13, -6.086494591762345225E-15, 49.70000000000000284 ) ) ;
#181 = LOCAL_TIME ( 7, 45, 19.00000000000000000, #267 ) ;
#182 = EDGE_CURVE ( 'NONE', #213, #213, #217, .T. ) ;
#183 = CARTESIAN_POINT ( 'NONE',  ( 2.793185071074506684E-14, 1.148499999999993859, 8.000000000000000000 ) ) ;
#184 = CARTESIAN_POINT ( 'NONE',  ( -1.892735826383161356E-31, 1.004162432702589536, -5.421010862427522170E-17 ) ) ;
#185 = CC_DESIGN_DATE_AND_TIME_ASSIGNMENT ( #222, #195, ( #103 ) ) ;
#186 = UNCERTAINTY_MEASURE_WITH_UNIT (LENGTH_MEASURE( 1.000000000000000082E-05 ), #189, 'distance_accuracy_value', 'NONE');
#187 = APPROVAL_PERSON_ORGANIZATION ( #210, #177, #115 ) ;
#188 = EDGE_LOOP ( 'NONE', ( #289 ) ) ;
#189 =( LENGTH_UNIT ( ) NAMED_UNIT ( * ) SI_UNIT ( .MILLI., .METRE. ) );
#190 = EDGE_LOOP ( 'NONE', ( #171 ) ) ;
#191 = EDGE_LOOP ( 'NONE', ( #216 ) ) ;
#192 = CIRCLE ( 'NONE', #8, 1.499999999999996669 ) ;
#193 = EDGE_LOOP ( 'NONE', ( #269 ) ) ;
#194 = FACE_OUTER_BOUND ( 'NONE', #30, .T. ) ;
#195 = DATE_TIME_ROLE ( 'creation_date' ) ;
#196 = DIRECTION ( 'NONE',  ( 3.491481338843133355E-15, -1.224646799147353207E-16, 1.000000000000000000 ) ) ;
#197 = PRODUCT_DEFINITION_SHAPE ( 'NONE', 'NONE',  #103 ) ;
#198 = PERSON_AND_ORGANIZATION ( #283, #259 ) ;
#199 = AXIS2_PLACEMENT_3D ( 'NONE', #239, #122, #35 ) ;
#200 = CARTESIAN_POINT ( 'NONE',  ( 7.345718736475924051E-14, -2.576531295751585890E-15, 21.03897464595887712 ) ) ;
#201 = DIRECTION ( 'NONE',  ( 0.0000000000000000000, 1.000000000000000000, 0.0000000000000000000 ) ) ;
#202 = CARTESIAN_POINT ( 'NONE',  ( 2.793185071074506684E-14, 8.612370551935664682E-33, 8.000000000000000000 ) ) ;
#203 = CALENDAR_DATE ( 2021, 30, 11 ) ;
#204 = DIRECTION ( 'NONE',  ( -3.491481338843133355E-15, 1.224646799147353207E-16, -1.000000000000000000 ) ) ;
#205 = ADVANCED_FACE ( 'NONE', ( #194 ), #276, .T. ) ;
#206 = APPROVAL ( #271, 'UNSPECIFIED' ) ;
#207 = CC_DESIGN_PERSON_AND_ORGANIZATION_ASSIGNMENT ( #282, #1, ( #103 ) ) ;
#208 = AXIS2_PLACEMENT_3D ( 'NONE', #153, #82, #16 ) ;
#209 = LOCAL_TIME ( 7, 45, 19.00000000000000000, #14 ) ;
#210 = PERSON_AND_ORGANIZATION ( #283, #259 ) ;
#211 = ORIENTED_EDGE ( 'NONE', *, *, #120, .F. ) ;
#212 = AXIS2_PLACEMENT_3D ( 'NONE', #275, #108, #64 ) ;
#213 = VERTEX_POINT ( 'NONE', #74 ) ;
#214 = FACE_OUTER_BOUND ( 'NONE', #33, .T. ) ;
#215 = FACE_OUTER_BOUND ( 'NONE', #75, .T. ) ;
#216 = ORIENTED_EDGE ( 'NONE', *, *, #49, .F. ) ;
#217 = CIRCLE ( 'NONE', #20, 1.025384493975579403 ) ;
#218 = CC_DESIGN_SECURITY_CLASSIFICATION ( #248, ( #224 ) ) ;
#219 = DIRECTION ( 'NONE',  ( 4.275831445896958607E-31, 1.000000000000000000, 1.224646799147353454E-16 ) ) ;
#220 = FACE_OUTER_BOUND ( 'NONE', #168, .T. ) ;
#221 = ADVANCED_FACE ( 'NONE', ( #132, #223 ), #301, .T. ) ;
#222 = DATE_AND_TIME ( #40, #272 ) ;
#223 = FACE_OUTER_BOUND ( 'NONE', #236, .T. ) ;
#224 = PRODUCT_DEFINITION_FORMATION_WITH_SPECIFIED_SOURCE ( 'ANY', '', #251, .NOT_KNOWN. ) ;
#225 = FACE_BOUND ( 'NONE', #188, .T. ) ;
#226 = DESIGN_CONTEXT ( 'detailed design', #24, 'design' ) ;
#227 = ADVANCED_FACE ( 'NONE', ( #137, #293 ), #53, .T. ) ;
#228 = DIRECTION ( 'NONE',  ( -4.275831445896958607E-31, -1.000000000000000000, -1.224646799147353207E-16 ) ) ;
#229 = APPROVAL_STATUS ( 'not_yet_approved' ) ;
#230 = MECHANICAL_CONTEXT ( 'NONE', #280, 'mechanical' ) ;
#231 = AXIS2_PLACEMENT_3D ( 'NONE', #96, #100, #235 ) ;
#232 = PERSON_AND_ORGANIZATION ( #283, #259 ) ;
#233 = AXIS2_PLACEMENT_3D ( 'NONE', #249, #39, #201 ) ;
#234 = EDGE_CURVE ( 'NONE', #141, #141, #287, .T. ) ;
#235 = DIRECTION ( 'NONE',  ( 5.030726889997160278E-31, 1.000000000000000000, 1.416023734199621578E-16 ) ) ;
#236 = EDGE_LOOP ( 'NONE', ( #150 ) ) ;
#237 = PLANE ( 'NONE',  #37 ) ;
#238 = ADVANCED_BREP_SHAPE_REPRESENTATION ( '985826', ( #135, #146, #278 ), #94 ) ;
#239 = CARTESIAN_POINT ( 'NONE',  ( 6.284666409917640040E-14, -2.168404344971008868E-15, 18.00000000000000000 ) ) ;
#240 = CIRCLE ( 'NONE', #78, 1.200000000000001732 ) ;
#241 = CIRCLE ( 'NONE', #231, 1.148499999999993859 ) ;
#242 = EDGE_LOOP ( 'NONE', ( #52 ) ) ;
#243 = EDGE_LOOP ( 'NONE', ( #27 ) ) ;
#244 = PERSON_AND_ORGANIZATION ( #283, #259 ) ;
#245 = FACE_OUTER_BOUND ( 'NONE', #80, .T. ) ;
#246 = AXIS2_PLACEMENT_3D ( 'NONE', #255, #42, #133 ) ;
#247 = APPROVAL_ROLE ( '' ) ;
#248 = SECURITY_CLASSIFICATION ( '', '', #38 ) ;
#249 = CARTESIAN_POINT ( 'NONE',  ( 1.745740669421566678E-13, -6.123233995736766085E-15, 50.00000000000000000 ) ) ;
#250 = CALENDAR_DATE ( 2021, 30, 11 ) ;
#251 = PRODUCT ( '985826', '985826', '', ( #230 ) ) ;
#252 = DIRECTION ( 'NONE',  ( 3.491481338843133355E-15, -1.224646799147353207E-16, 1.000000000000000000 ) ) ;
#253 = FACE_OUTER_BOUND ( 'NONE', #290, .T. ) ;
#254 = CIRCLE ( 'NONE', #118, 1.148499999999994969 ) ;
#255 = CARTESIAN_POINT ( 'NONE',  ( 0.0000000000000000000, 0.0000000000000000000, 0.0000000000000000000 ) ) ;
#256 = FACE_OUTER_BOUND ( 'NONE', #242, .T. ) ;
#257 = DIRECTION ( 'NONE',  ( 4.275831445896958607E-31, 1.000000000000000000, 1.224646799147353207E-16 ) ) ;
#258 = DIRECTION ( 'NONE',  ( 0.0000000000000000000, 0.0000000000000000000, 1.000000000000000000 ) ) ;
#259 = ORGANIZATION ( 'UNSPECIFIED', 'UNSPECIFIED', '' ) ;
#260 = VERTEX_POINT ( 'NONE', #262 ) ;
#261 = CYLINDRICAL_SURFACE ( 'NONE', #134, 1.499999999999999112 ) ;
#262 = CARTESIAN_POINT ( 'NONE',  ( 1.745740669421566678E-13, 1.199999999999995515, 50.00000000000000000 ) ) ;
#263 = ORIENTED_EDGE ( 'NONE', *, *, #138, .T. ) ;
#264 = DIRECTION ( 'NONE',  ( 1.000000000000000000, 0.0000000000000000000, 0.0000000000000000000 ) ) ;
#265 = FACE_OUTER_BOUND ( 'NONE', #124, .T. ) ;
#266 = CC_DESIGN_PERSON_AND_ORGANIZATION_ASSIGNMENT ( #232, #167, ( #251 ) ) ;
#267 = COORDINATED_UNIVERSAL_TIME_OFFSET ( 1, 0, .AHEAD. ) ;
#268 = DIRECTION ( 'NONE',  ( -3.491481338843133355E-15, 1.224646799147353207E-16, -1.000000000000000000 ) ) ;
#269 = ORIENTED_EDGE ( 'NONE', *, *, #165, .T. ) ;
#270 = CARTESIAN_POINT ( 'NONE',  ( 2.793185071074506684E-14, 8.612370551935664682E-33, 8.000000000000000000 ) ) ;
#271 = APPROVAL_STATUS ( 'not_yet_approved' ) ;
#272 = LOCAL_TIME ( 7, 45, 19.00000000000000000, #288 ) ;
#273 = DIRECTION ( 'NONE',  ( -3.491481338843133355E-15, 1.224646799147353207E-16, -1.000000000000000000 ) ) ;
#274 = SHAPE_DEFINITION_REPRESENTATION ( #197, #238 ) ;
#275 = CARTESIAN_POINT ( 'NONE',  ( 2.886013015238223353E-14, -1.012277099146736572E-15, 8.265869798961819725 ) ) ;
#276 = PLANE ( 'NONE',  #60 ) ;
#277 = AXIS2_PLACEMENT_3D ( 'NONE', #129, #104, #219 ) ;
#278 = AXIS2_PLACEMENT_3D ( 'NONE', #121, #258, #264 ) ;
#279 = PLANE ( 'NONE',  #65 ) ;
#280 = APPLICATION_CONTEXT ( 'configuration controlled 3d designs of mechanical parts and assemblies' ) ;
#281 = CLOSED_SHELL ( 'NONE', ( #61, #221, #6, #205 ) ) ;
#282 = PERSON_AND_ORGANIZATION ( #283, #259 ) ;
#283 = PERSON ( 'UNSPECIFIED', 'UNSPECIFIED', 'UNSPECIFIED', ('UNSPECIFIED'), ('UNSPECIFIED'), ('UNSPECIFIED') ) ;
#284 = ADVANCED_FACE ( 'NONE', ( #15 ), #237, .F. ) ;
#285 = AXIS2_PLACEMENT_3D ( 'NONE', #99, #148, #101 ) ;
#286 = FACE_OUTER_BOUND ( 'NONE', #190, .T. ) ;
#287 = CIRCLE ( 'NONE', #72, 1.500000000000001554 ) ;
#288 = COORDINATED_UNIVERSAL_TIME_OFFSET ( 1, 0, .AHEAD. ) ;
#289 = ORIENTED_EDGE ( 'NONE', *, *, #49, .T. ) ;
#290 = EDGE_LOOP ( 'NONE', ( #7 ) ) ;
#291 = EDGE_LOOP ( 'NONE', ( #211 ) ) ;
#292 = ORIENTED_EDGE ( 'NONE', *, *, #165, .F. ) ;
#293 = FACE_OUTER_BOUND ( 'NONE', #193, .T. ) ;
#294 = DIRECTION ( 'NONE',  ( -3.491481338843133355E-15, 1.224646799147353207E-16, -1.000000000000000000 ) ) ;
#295 = PERSON_AND_ORGANIZATION_ROLE ( 'classification_officer' ) ;
#296 = AXIS2_PLACEMENT_3D ( 'NONE', #11, #136, #300 ) ;
#297 = DIRECTION ( 'NONE',  ( 3.491481338843133355E-15, -1.224646799147353207E-16, 1.000000000000000000 ) ) ;
#298 = CC_DESIGN_PERSON_AND_ORGANIZATION_ASSIGNMENT ( #198, #151, ( #224 ) ) ;
#299 = DIRECTION ( 'NONE',  ( -3.491481338843133355E-15, 1.224646799147353207E-16, -1.000000000000000000 ) ) ;
#300 = DIRECTION ( 'NONE',  ( 0.0000000000000000000, -1.000000000000000000, 0.0000000000000000000 ) ) ;
#301 = CONICAL_SURFACE ( 'NONE', #162, 1.148499999999993859, 0.5235987755982925984 ) ;
#302 = EDGE_CURVE ( 'NONE', #139, #139, #241, .T. ) ;
#303 = VERTEX_POINT ( 'NONE', #21 ) ;
ENDSEC;
END-ISO-10303-21;
