ISO-10303-21;
HEADER;
FILE_DESCRIPTION (( 'STEP AP203' ),
    '1' );
FILE_NAME ('985156.step',
    '2023-09-27T05:43:28',
    ( '' ),
    ( '' ),
    'SwSTEP 2.0',
    'SolidWorks 2022',
    '' );
FILE_SCHEMA (( 'CONFIG_CONTROL_DESIGN' ));
ENDSEC;

DATA;
#1 = CYLINDRICAL_SURFACE ( 'NONE', #154, 0.2600000000000000089 ) ;
#2 = FACE_OUTER_BOUND ( 'NONE', #128, .T. ) ;
#3 = EDGE_LOOP ( 'NONE', ( #242 ) ) ;
#4 = COORDINATED_UNIVERSAL_TIME_OFFSET ( 1, 0, .AHEAD. ) ;
#5 = APPROVAL_STATUS ( 'not_yet_approved' ) ;
#6 = APPROVAL_STATUS ( 'not_yet_approved' ) ;
#7 = ORIENTED_EDGE ( 'NONE', *, *, #11, .F. ) ;
#8 = PERSON_AND_ORGANIZATION ( #238, #53 ) ;
#9 = APPROVAL_STATUS ( 'not_yet_approved' ) ;
#10 = EDGE_LOOP ( 'NONE', ( #144 ) ) ;
#11 = EDGE_CURVE ( 'NONE', #240, #240, #25, .T. ) ;
#12 = CONICAL_SURFACE ( 'NONE', #217, 0.1549999999999999711, 1.047197551196619614 ) ;
#13 = ADVANCED_BREP_SHAPE_REPRESENTATION ( '985156', ( #178, #82 ), #33 ) ;
#14 = DIRECTION ( 'NONE',  ( 1.000000000000000000, 0.000000000000000000, -2.797941090285177224E-15 ) ) ;
#15 = CARTESIAN_POINT ( 'NONE',  ( 1.316288464743861212E-13, 0.000000000000000000, 37.69999999999999574 ) ) ;
#16 = DIRECTION ( 'NONE',  ( 1.000000000000000000, 0.000000000000000000, -4.625929269271491633E-15 ) ) ;
#17 = AXIS2_PLACEMENT_3D ( 'NONE', #87, #165, #191 ) ;
#18 = AXIS2_PLACEMENT_3D ( 'NONE', #151, #150, #41 ) ;
#19 = FACE_BOUND ( 'NONE', #219, .T. ) ;
#20 = CARTESIAN_POINT ( 'NONE',  ( 7.188328276030272174E-15, 0.000000000000000000, 2.058819045102515233 ) ) ;
#21 = CARTESIAN_POINT ( 'NONE',  ( 2.625772437308923810E-16, 0.000000000000000000, 0.07520511159824633252 ) ) ;
#22 = FACE_BOUND ( 'NONE', #100, .T. ) ;
#23 = CARTESIAN_POINT ( 'NONE',  ( 1.200000000000125855, 0.000000000000000000, 37.99999999999999289 ) ) ;
#24 = APPLICATION_PROTOCOL_DEFINITION ( 'international standard', 'config_control_design', 1994, #146 ) ;
#25 = CIRCLE ( 'NONE', #237, 0.2600000000000000089 ) ;
#26 = PERSON_AND_ORGANIZATION ( #238, #53 ) ;
#27 = PRODUCT_DEFINITION_FORMATION_WITH_SPECIFIED_SOURCE ( 'ANY', '', #202, .NOT_KNOWN. ) ;
#28 = ORIENTED_EDGE ( 'NONE', *, *, #129, .F. ) ;
#29 = PERSON_AND_ORGANIZATION ( #238, #53 ) ;
#30 = DATE_AND_TIME ( #102, #245 ) ;
#31 = TOROIDAL_SURFACE ( 'NONE', #180, 1.154999999999999805, 1.000000000000000000 ) ;
#32 = CIRCLE ( 'NONE', #89, 1.500000000000000000 ) ;
#33 =( GEOMETRIC_REPRESENTATION_CONTEXT ( 3 ) GLOBAL_UNCERTAINTY_ASSIGNED_CONTEXT ( ( #223 ) ) GLOBAL_UNIT_ASSIGNED_CONTEXT ( ( #176, #174, #45 ) ) REPRESENTATION_CONTEXT ( 'NONE', 'WORKASPACE' ) );
#34 = CC_DESIGN_APPROVAL ( #263, ( #27 ) ) ;
#35 = ORIENTED_EDGE ( 'NONE', *, *, #120, .F. ) ;
#36 = EDGE_CURVE ( 'NONE', #44, #44, #88, .T. ) ;
#37 = ORIENTED_EDGE ( 'NONE', *, *, #11, .T. ) ;
#38 = DIRECTION ( 'NONE',  ( -1.000000000000000000, 0.000000000000000000, 4.625929269271497155E-15 ) ) ;
#39 = EDGE_CURVE ( 'NONE', #117, #117, #63, .T. ) ;
#40 = EDGE_LOOP ( 'NONE', ( #46 ) ) ;
#41 = DIRECTION ( 'NONE',  ( -1.000000000000000000, 0.000000000000000000, 3.491481338843133355E-15 ) ) ;
#42 = DIRECTION ( 'NONE',  ( 3.491481338843133355E-15, -0.000000000000000000, 1.000000000000000000 ) ) ;
#43 = FACE_OUTER_BOUND ( 'NONE', #203, .T. ) ;
#44 = VERTEX_POINT ( 'NONE', #23 ) ;
#45 =( NAMED_UNIT ( * ) SI_UNIT ( $, .STERADIAN. ) SOLID_ANGLE_UNIT ( ) );
#46 = ORIENTED_EDGE ( 'NONE', *, *, #39, .F. ) ;
#47 = AXIS2_PLACEMENT_3D ( 'NONE', #272, #110, #206 ) ;
#48 = DIRECTION ( 'NONE',  ( 3.491481338843133355E-15, -0.000000000000000000, 1.000000000000000000 ) ) ;
#49 = FACE_OUTER_BOUND ( 'NONE', #255, .T. ) ;
#50 = ORIENTED_EDGE ( 'NONE', *, *, #66, .T. ) ;
#51 = DIRECTION ( 'NONE',  ( 3.491481338843133355E-15, -0.000000000000000000, 1.000000000000000000 ) ) ;
#52 = CONICAL_SURFACE ( 'NONE', #227, 0.2600000000000000089, 1.047197551196620058 ) ;
#53 = ORGANIZATION ( 'UNSPECIFIED', 'UNSPECIFIED', '' ) ;
#54 = EDGE_LOOP ( 'NONE', ( #50 ) ) ;
#55 = PERSON_AND_ORGANIZATION_ROLE ( 'design_supplier' ) ;
#56 = DATE_AND_TIME ( #264, #159 ) ;
#57 = ORIENTED_EDGE ( 'NONE', *, *, #157, .F. ) ;
#58 = DATE_AND_TIME ( #262, #253 ) ;
#59 = EDGE_LOOP ( 'NONE', ( #28 ) ) ;
#60 = PLANE ( 'NONE',  #18 ) ;
#61 = CC_DESIGN_DATE_AND_TIME_ASSIGNMENT ( #56, #266, ( #103 ) ) ;
#62 = FACE_OUTER_BOUND ( 'NONE', #10, .T. ) ;
#63 = CIRCLE ( 'NONE', #47, 1.499999999999996225 ) ;
#64 = CARTESIAN_POINT ( 'NONE',  ( 0.000000000000000000, 0.000000000000000000, 0.000000000000000000 ) ) ;
#65 = DIRECTION ( 'NONE',  ( 1.000000000000000000, 0.000000000000000000, -3.492381997910038260E-15 ) ) ;
#66 = EDGE_CURVE ( 'NONE', #210, #210, #211, .T. ) ;
#67 = DIRECTION ( 'NONE',  ( 3.491481338843133355E-15, -0.000000000000000000, 1.000000000000000000 ) ) ;
#68 = VERTEX_POINT ( 'NONE', #118 ) ;
#69 = CARTESIAN_POINT ( 'NONE',  ( 1.683244573692923109E-31, 0.000000000000000000, 4.821004067719430734E-17 ) ) ;
#70 = ORIENTED_EDGE ( 'NONE', *, *, #133, .F. ) ;
#71 = CC_DESIGN_DATE_AND_TIME_ASSIGNMENT ( #198, #247, ( #78 ) ) ;
#72 = APPLICATION_CONTEXT ( 'configuration controlled 3d designs of mechanical parts and assemblies' ) ;
#73 = CIRCLE ( 'NONE', #251, 0.1549999999999997491 ) ;
#74 = COORDINATED_UNIVERSAL_TIME_OFFSET ( 1, 0, .AHEAD. ) ;
#75 = ADVANCED_FACE ( 'NONE', ( #19, #62 ), #135, .T. ) ;
#76 = EDGE_LOOP ( 'NONE', ( #244 ) ) ;
#77 = APPROVAL_ROLE ( '' ) ;
#78 = SECURITY_CLASSIFICATION ( '', '', #197 ) ;
#79 = EDGE_LOOP ( 'NONE', ( #7 ) ) ;
#80 = PERSON_AND_ORGANIZATION ( #238, #53 ) ;
#81 = COORDINATED_UNIVERSAL_TIME_OFFSET ( 1, 0, .AHEAD. ) ;
#82 = AXIS2_PLACEMENT_3D ( 'NONE', #261, #155, #139 ) ;
#83 = ADVANCED_FACE ( 'NONE', ( #43 ), #60, .F. ) ;
#84 = FACE_OUTER_BOUND ( 'NONE', #59, .T. ) ;
#85 = ORIENTED_EDGE ( 'NONE', *, *, #36, .F. ) ;
#86 = DIRECTION ( 'NONE',  ( 1.000000000000000000, 0.000000000000000000, 0.000000000000000000 ) ) ;
#87 = CARTESIAN_POINT ( 'NONE',  ( 2.116598075394113745E-16, 0.000000000000000000, 0.06062177826490766641 ) ) ;
#88 = CIRCLE ( 'NONE', #259, 1.199999999999993072 ) ;
#89 = AXIS2_PLACEMENT_3D ( 'NONE', #134, #153, #137 ) ;
#90 = DIRECTION ( 'NONE',  ( 1.000000000000000000, 0.000000000000000000, -5.782411586589390376E-15 ) ) ;
#91 = AXIS2_PLACEMENT_3D ( 'NONE', #273, #51, #234 ) ;
#92 = ADVANCED_FACE ( 'NONE', ( #231, #93 ), #170, .T. ) ;
#93 = FACE_OUTER_BOUND ( 'NONE', #3, .T. ) ;
#94 = DIRECTION ( 'NONE',  ( -1.000000000000000000, 0.000000000000000000, 3.492381997910038260E-15 ) ) ;
#95 = CARTESIAN_POINT ( 'NONE',  ( 1.500000000000024425, 0.000000000000000000, 6.951260833767661573 ) ) ;
#96 = APPROVAL_PERSON_ORGANIZATION ( #243, #162, #77 ) ;
#97 = VERTEX_POINT ( 'NONE', #95 ) ;
#98 = DIRECTION ( 'NONE',  ( 1.000000000000000000, 0.000000000000000000, 0.000000000000000000 ) ) ;
#99 = CLOSED_SHELL ( 'NONE', ( #235, #171, #230, #195, #138, #75, #83, #116, #257, #92 ) ) ;
#100 = EDGE_LOOP ( 'NONE', ( #265 ) ) ;
#101 = CIRCLE ( 'NONE', #221, 0.1549999999999999711 ) ;
#102 = CALENDAR_DATE ( 2023, 27, 9 ) ;
#103 = PRODUCT_DEFINITION ( 'UNKNOWN', '', #27, #164 ) ;
#104 = COORDINATED_UNIVERSAL_TIME_OFFSET ( 1, 0, .AHEAD. ) ;
#105 = CALENDAR_DATE ( 2023, 27, 9 ) ;
#106 = ORIENTED_EDGE ( 'NONE', *, *, #133, .T. ) ;
#107 = LOCAL_TIME ( 7, 43, 28.00000000000000000, #74 ) ;
#108 = DIRECTION ( 'NONE',  ( 1.000000000000000000, 0.000000000000000000, -3.491481338843132961E-15 ) ) ;
#109 = CARTESIAN_POINT ( 'NONE',  ( 6.284666409917650295E-15, 0.000000000000000000, 1.800000000000002931 ) ) ;
#110 = DIRECTION ( 'NONE',  ( 3.491481338843133355E-15, -0.000000000000000000, 1.000000000000000000 ) ) ;
#111 = AXIS2_PLACEMENT_3D ( 'NONE', #113, #163, #86 ) ;
#112 = PRODUCT_RELATED_PRODUCT_CATEGORY ( 'detail', '', ( #202 ) ) ;
#113 = CARTESIAN_POINT ( 'NONE',  ( 1.326762908760390423E-13, 0.000000000000000000, 38.00000000000000000 ) ) ;
#114 = LOCAL_TIME ( 7, 43, 28.00000000000000000, #104 ) ;
#115 = DIRECTION ( 'NONE',  ( 1.000000000000000000, 0.000000000000000000, -4.587415197775708050E-15 ) ) ;
#116 = ADVANCED_FACE ( 'NONE', ( #132, #145 ), #31, .F. ) ;
#117 = VERTEX_POINT ( 'NONE', #172 ) ;
#118 = CARTESIAN_POINT ( 'NONE',  ( 0.1890741737109369602, 0.000000000000000000, 2.058819045102514345 ) ) ;
#119 = VERTEX_POINT ( 'NONE', #214 ) ;
#120 = EDGE_CURVE ( 'NONE', #68, #68, #271, .T. ) ;
#121 = EDGE_LOOP ( 'NONE', ( #35 ) ) ;
#122 = AXIS2_PLACEMENT_3D ( 'NONE', #15, #169, #38 ) ;
#123 = EDGE_LOOP ( 'NONE', ( #269 ) ) ;
#124 = EDGE_LOOP ( 'NONE', ( #37 ) ) ;
#125 = CC_DESIGN_PERSON_AND_ORGANIZATION_ASSIGNMENT ( #241, #201, ( #78 ) ) ;
#126 = DIRECTION ( 'NONE',  ( 3.491481338843133355E-15, -0.000000000000000000, 1.000000000000000000 ) ) ;
#127 = CC_DESIGN_APPROVAL ( #162, ( #103 ) ) ;
#128 = EDGE_LOOP ( 'NONE', ( #216 ) ) ;
#129 = EDGE_CURVE ( 'NONE', #193, #193, #73, .T. ) ;
#130 = CARTESIAN_POINT ( 'NONE',  ( 4.742370512703037309E-16, 0.000000000000000000, 0.1358268898631539989 ) ) ;
#131 = CARTESIAN_POINT ( 'NONE',  ( 0.000000000000000000, 0.000000000000000000, 0.000000000000000000 ) ) ;
#132 = FACE_OUTER_BOUND ( 'NONE', #121, .T. ) ;
#133 = EDGE_CURVE ( 'NONE', #119, #119, #101, .T. ) ;
#134 = CARTESIAN_POINT ( 'NONE',  ( 2.427019748253096820E-14, 0.000000000000000000, 6.951260833767666902 ) ) ;
#135 = CONICAL_SURFACE ( 'NONE', #122, 1.499999999999996225, 0.7853981633974504994 ) ;
#136 = FACE_OUTER_BOUND ( 'NONE', #76, .T. ) ;
#137 = DIRECTION ( 'NONE',  ( 1.000000000000000000, 0.000000000000000000, -3.469446951953614189E-15 ) ) ;
#138 = ADVANCED_FACE ( 'NONE', ( #84, #187 ), #207, .T. ) ;
#139 = DIRECTION ( 'NONE',  ( 1.000000000000000000, 0.000000000000000000, 0.000000000000000000 ) ) ;
#140 = ORIENTED_EDGE ( 'NONE', *, *, #129, .T. ) ;
#141 = ORIENTED_EDGE ( 'NONE', *, *, #36, .T. ) ;
#142 = CC_DESIGN_SECURITY_CLASSIFICATION ( #78, ( #27 ) ) ;
#143 = APPROVAL_DATE_TIME ( #58, #263 ) ;
#144 = ORIENTED_EDGE ( 'NONE', *, *, #39, .T. ) ;
#145 = FACE_OUTER_BOUND ( 'NONE', #182, .T. ) ;
#146 = APPLICATION_CONTEXT ( 'configuration controlled 3d designs of mechanical parts and assemblies' ) ;
#147 = CONICAL_SURFACE ( 'NONE', #91, 0.1890741737109297715, 0.2617993877991428575 ) ;
#148 = APPROVAL_PERSON_ORGANIZATION ( #218, #263, #181 ) ;
#149 = DIRECTION ( 'NONE',  ( 3.491481338843133355E-15, -0.000000000000000000, 1.000000000000000000 ) ) ;
#150 = DIRECTION ( 'NONE',  ( -3.491481338843133355E-15, 0.000000000000000000, -1.000000000000000000 ) ) ;
#151 = CARTESIAN_POINT ( 'NONE',  ( 1.326762908760390423E-13, 1.199999999999993072, 38.00000000000000000 ) ) ;
#152 = CARTESIAN_POINT ( 'NONE',  ( 0.1550000000000060496, 0.000000000000000000, 1.800000000000002487 ) ) ;
#153 = DIRECTION ( 'NONE',  ( 3.491481338843133355E-15, -0.000000000000000000, 1.000000000000000000 ) ) ;
#154 = AXIS2_PLACEMENT_3D ( 'NONE', #194, #258, #98 ) ;
#155 = DIRECTION ( 'NONE',  ( 0.000000000000000000, 0.000000000000000000, 1.000000000000000000 ) ) ;
#156 = CALENDAR_DATE ( 2023, 27, 9 ) ;
#157 = EDGE_CURVE ( 'NONE', #274, #274, #200, .T. ) ;
#158 = APPROVAL_ROLE ( '' ) ;
#159 = LOCAL_TIME ( 7, 43, 28.00000000000000000, #81 ) ;
#160 = COORDINATED_UNIVERSAL_TIME_OFFSET ( 1, 0, .AHEAD. ) ;
#161 = APPROVAL_DATE_TIME ( #222, #175 ) ;
#162 = APPROVAL ( #6, 'UNSPECIFIED' ) ;
#163 = DIRECTION ( 'NONE',  ( 3.491481338843133355E-15, -0.000000000000000000, 1.000000000000000000 ) ) ;
#164 = DESIGN_CONTEXT ( 'detailed design', #72, 'design' ) ;
#165 = DIRECTION ( 'NONE',  ( 3.491481338843133355E-15, -0.000000000000000000, 1.000000000000000000 ) ) ;
#166 = CC_DESIGN_PERSON_AND_ORGANIZATION_ASSIGNMENT ( #8, #215, ( #103 ) ) ;
#167 = AXIS2_PLACEMENT_3D ( 'NONE', #130, #254, #249 ) ;
#168 = FACE_OUTER_BOUND ( 'NONE', #185, .T. ) ;
#169 = DIRECTION ( 'NONE',  ( -3.491481338843133355E-15, 0.000000000000000000, -1.000000000000000000 ) ) ;
#170 = CYLINDRICAL_SURFACE ( 'NONE', #177, 1.499999999999998002 ) ;
#171 = ADVANCED_FACE ( 'NONE', ( #168, #252 ), #12, .T. ) ;
#172 = CARTESIAN_POINT ( 'NONE',  ( 1.500000000000127676, 0.000000000000000000, 37.69999999999998863 ) ) ;
#173 = DIRECTION ( 'NONE',  ( 1.000000000000000000, 0.000000000000000000, -3.491481338843133355E-15 ) ) ;
#174 =( NAMED_UNIT ( * ) PLANE_ANGLE_UNIT ( ) SI_UNIT ( $, .RADIAN. ) );
#175 = APPROVAL ( #5, 'UNSPECIFIED' ) ;
#176 =( LENGTH_UNIT ( ) NAMED_UNIT ( * ) SI_UNIT ( .MILLI., .METRE. ) );
#177 = AXIS2_PLACEMENT_3D ( 'NONE', #267, #126, #16 ) ;
#178 = MANIFOLD_SOLID_BREP ( 'Corps-Déplacer/Copier1', #99 ) ;
#179 = MECHANICAL_CONTEXT ( 'NONE', #146, 'mechanical' ) ;
#180 = AXIS2_PLACEMENT_3D ( 'NONE', #232, #42, #209 ) ;
#181 = APPROVAL_ROLE ( '' ) ;
#182 = EDGE_LOOP ( 'NONE', ( #140 ) ) ;
#183 = PERSON_AND_ORGANIZATION ( #238, #53 ) ;
#184 = CC_DESIGN_PERSON_AND_ORGANIZATION_ASSIGNMENT ( #80, #246, ( #27 ) ) ;
#185 = EDGE_LOOP ( 'NONE', ( #57 ) ) ;
#186 = CC_DESIGN_PERSON_AND_ORGANIZATION_ASSIGNMENT ( #29, #199, ( #202 ) ) ;
#187 = FACE_OUTER_BOUND ( 'NONE', #54, .T. ) ;
#188 = DIRECTION ( 'NONE',  ( 3.491481338843133355E-15, -0.000000000000000000, 1.000000000000000000 ) ) ;
#189 = AXIS2_PLACEMENT_3D ( 'NONE', #20, #205, #115 ) ;
#190 = CARTESIAN_POINT ( 'NONE',  ( 1.326762908760390423E-13, 0.000000000000000000, 38.00000000000000000 ) ) ;
#191 = DIRECTION ( 'NONE',  ( 1.000000000000000000, 0.000000000000000000, -3.492381997910038260E-15 ) ) ;
#192 = FACE_BOUND ( 'NONE', #123, .T. ) ;
#193 = VERTEX_POINT ( 'NONE', #152 ) ;
#194 = CARTESIAN_POINT ( 'NONE',  ( 1.326762908760390423E-13, 0.000000000000000000, 38.00000000000000000 ) ) ;
#195 = ADVANCED_FACE ( 'NONE', ( #22, #239 ), #52, .T. ) ;
#196 = DIRECTION ( 'NONE',  ( -3.491481338843133355E-15, 0.000000000000000000, -1.000000000000000000 ) ) ;
#197 = SECURITY_CLASSIFICATION_LEVEL ( 'unclassified' ) ;
#198 = DATE_AND_TIME ( #105, #107 ) ;
#199 = PERSON_AND_ORGANIZATION_ROLE ( 'design_owner' ) ;
#200 = CIRCLE ( 'NONE', #17, 0.2600000000000000089 ) ;
#201 = PERSON_AND_ORGANIZATION_ROLE ( 'classification_officer' ) ;
#202 = PRODUCT ( '985156', '985156', '', ( #179 ) ) ;
#203 = EDGE_LOOP ( 'NONE', ( #141 ) ) ;
#204 = EDGE_CURVE ( 'NONE', #97, #97, #32, .T. ) ;
#205 = DIRECTION ( 'NONE',  ( 3.491481338843133355E-15, -0.000000000000000000, 1.000000000000000000 ) ) ;
#206 = DIRECTION ( 'NONE',  ( 1.000000000000000000, 0.000000000000000000, -4.625929269271497155E-15 ) ) ;
#207 = CYLINDRICAL_SURFACE ( 'NONE', #111, 0.1549999999999998046 ) ;
#208 = APPROVAL_PERSON_ORGANIZATION ( #26, #175, #158 ) ;
#209 = DIRECTION ( 'NONE',  ( 1.000000000000000000, 0.000000000000000000, -3.491481338843132961E-15 ) ) ;
#210 = VERTEX_POINT ( 'NONE', #256 ) ;
#211 = CIRCLE ( 'NONE', #167, 0.1549999999999998601 ) ;
#212 = CARTESIAN_POINT ( 'NONE',  ( 0.2600000000000002864, 0.000000000000000000, 0.07520511159824543046 ) ) ;
#213 = PLANE ( 'NONE',  #233 ) ;
#214 = CARTESIAN_POINT ( 'NONE',  ( 0.1549999999999999711, 0.000000000000000000, -5.411796075206855320E-16 ) ) ;
#215 = PERSON_AND_ORGANIZATION_ROLE ( 'creator' ) ;
#216 = ORIENTED_EDGE ( 'NONE', *, *, #157, .T. ) ;
#217 = AXIS2_PLACEMENT_3D ( 'NONE', #64, #149, #229 ) ;
#218 = PERSON_AND_ORGANIZATION ( #238, #53 ) ;
#219 = EDGE_LOOP ( 'NONE', ( #85 ) ) ;
#220 = SHAPE_DEFINITION_REPRESENTATION ( #225, #13 ) ;
#221 = AXIS2_PLACEMENT_3D ( 'NONE', #131, #270, #108 ) ;
#222 = DATE_AND_TIME ( #156, #114 ) ;
#223 = UNCERTAINTY_MEASURE_WITH_UNIT (LENGTH_MEASURE( 1.000000000000000082E-05 ), #176, 'distance_accuracy_value', 'NONE');
#224 = APPLICATION_PROTOCOL_DEFINITION ( 'international standard', 'config_control_design', 1994, #72 ) ;
#225 = PRODUCT_DEFINITION_SHAPE ( 'NONE', 'NONE',  #103 ) ;
#226 = EDGE_LOOP ( 'NONE', ( #106 ) ) ;
#227 = AXIS2_PLACEMENT_3D ( 'NONE', #21, #196, #94 ) ;
#228 = CARTESIAN_POINT ( 'NONE',  ( 2.625772437308923810E-16, 0.000000000000000000, 0.07520511159824633252 ) ) ;
#229 = DIRECTION ( 'NONE',  ( 1.000000000000000000, 0.000000000000000000, -3.491481338843132961E-15 ) ) ;
#230 = ADVANCED_FACE ( 'NONE', ( #236, #2 ), #1, .T. ) ;
#231 = FACE_OUTER_BOUND ( 'NONE', #40, .T. ) ;
#232 = CARTESIAN_POINT ( 'NONE',  ( 6.284666409917640040E-15, 0.000000000000000000, 1.800000000000000044 ) ) ;
#233 = AXIS2_PLACEMENT_3D ( 'NONE', #69, #48, #173 ) ;
#234 = DIRECTION ( 'NONE',  ( 1.000000000000000000, 0.000000000000000000, -4.587415197775708050E-15 ) ) ;
#235 = ADVANCED_FACE ( 'NONE', ( #49 ), #213, .F. ) ;
#236 = FACE_OUTER_BOUND ( 'NONE', #79, .T. ) ;
#237 = AXIS2_PLACEMENT_3D ( 'NONE', #228, #250, #65 ) ;
#238 = PERSON ( 'UNSPECIFIED', 'UNSPECIFIED', 'UNSPECIFIED', ('UNSPECIFIED'), ('UNSPECIFIED'), ('UNSPECIFIED') ) ;
#239 = FACE_OUTER_BOUND ( 'NONE', #124, .T. ) ;
#240 = VERTEX_POINT ( 'NONE', #212 ) ;
#241 = PERSON_AND_ORGANIZATION ( #238, #53 ) ;
#242 = ORIENTED_EDGE ( 'NONE', *, *, #204, .T. ) ;
#243 = PERSON_AND_ORGANIZATION ( #238, #53 ) ;
#244 = ORIENTED_EDGE ( 'NONE', *, *, #204, .F. ) ;
#245 = LOCAL_TIME ( 7, 43, 28.00000000000000000, #160 ) ;
#246 = PERSON_AND_ORGANIZATION_ROLE ( 'creator' ) ;
#247 = DATE_TIME_ROLE ( 'classification_date' ) ;
#248 = APPROVAL_DATE_TIME ( #30, #162 ) ;
#249 = DIRECTION ( 'NONE',  ( 1.000000000000000000, 0.000000000000000000, -3.497426362856469262E-15 ) ) ;
#250 = DIRECTION ( 'NONE',  ( 3.491481338843133355E-15, -0.000000000000000000, 1.000000000000000000 ) ) ;
#251 = AXIS2_PLACEMENT_3D ( 'NONE', #109, #188, #14 ) ;
#252 = FACE_BOUND ( 'NONE', #226, .T. ) ;
#253 = LOCAL_TIME ( 7, 43, 28.00000000000000000, #4 ) ;
#254 = DIRECTION ( 'NONE',  ( 3.491481338843133355E-15, -0.000000000000000000, 1.000000000000000000 ) ) ;
#255 = EDGE_LOOP ( 'NONE', ( #70 ) ) ;
#256 = CARTESIAN_POINT ( 'NONE',  ( 0.1550000000000003320, 0.000000000000000000, 0.1358268898631534438 ) ) ;
#257 = ADVANCED_FACE ( 'NONE', ( #136, #192 ), #147, .T. ) ;
#258 = DIRECTION ( 'NONE',  ( 3.491481338843133355E-15, -0.000000000000000000, 1.000000000000000000 ) ) ;
#259 = AXIS2_PLACEMENT_3D ( 'NONE', #190, #67, #90 ) ;
#260 = CC_DESIGN_PERSON_AND_ORGANIZATION_ASSIGNMENT ( #183, #55, ( #27 ) ) ;
#261 = CARTESIAN_POINT ( 'NONE',  ( 0.000000000000000000, 0.000000000000000000, 0.000000000000000000 ) ) ;
#262 = CALENDAR_DATE ( 2023, 27, 9 ) ;
#263 = APPROVAL ( #9, 'UNSPECIFIED' ) ;
#264 = CALENDAR_DATE ( 2023, 27, 9 ) ;
#265 = ORIENTED_EDGE ( 'NONE', *, *, #66, .F. ) ;
#266 = DATE_TIME_ROLE ( 'creation_date' ) ;
#267 = CARTESIAN_POINT ( 'NONE',  ( 1.326762908760390423E-13, 0.000000000000000000, 38.00000000000000000 ) ) ;
#268 = CC_DESIGN_APPROVAL ( #175, ( #78 ) ) ;
#269 = ORIENTED_EDGE ( 'NONE', *, *, #120, .T. ) ;
#270 = DIRECTION ( 'NONE',  ( 3.491481338843133355E-15, -0.000000000000000000, 1.000000000000000000 ) ) ;
#271 = CIRCLE ( 'NONE', #189, 0.1890741737109297715 ) ;
#272 = CARTESIAN_POINT ( 'NONE',  ( 1.316288464743861212E-13, 0.000000000000000000, 37.69999999999999574 ) ) ;
#273 = CARTESIAN_POINT ( 'NONE',  ( 7.188328276030272174E-15, 0.000000000000000000, 2.058819045102515233 ) ) ;
#274 = VERTEX_POINT ( 'NONE', #275 ) ;
#275 = CARTESIAN_POINT ( 'NONE',  ( 0.2600000000000002309, 0.000000000000000000, 0.06062177826490675742 ) ) ;
ENDSEC;
END-ISO-10303-21;
