ISO-10303-21;
HEADER;
FILE_DESCRIPTION (( 'STEP AP203' ),
    '1' );
FILE_NAME ('985120.step',
    '2021-09-02T07:28:21',
    ( '' ),
    ( '' ),
    'SwSTEP 2.0',
    'SolidWorks 2019',
    '' );
FILE_SCHEMA (( 'CONFIG_CONTROL_DESIGN' ));
ENDSEC;

DATA;
#1 = CARTESIAN_POINT ( 'NONE',  ( 0.0000000000000000000, 0.0000000000000000000, 0.0000000000000000000 ) ) ;
#2 = VERTEX_POINT ( 'NONE', #53 ) ;
#3 = DIRECTION ( 'NONE',  ( 0.0000000000000000000, 1.000000000000000000, 0.0000000000000000000 ) ) ;
#4 = VECTOR ( 'NONE', #12, 1000.000000000000000 ) ;
#5 = CC_DESIGN_PERSON_AND_ORGANIZATION_ASSIGNMENT ( #48, #182, ( #241 ) ) ;
#6 = LINE ( 'NONE', #44, #217 ) ;
#7 = ORIENTED_EDGE ( 'NONE', *, *, #283, .F. ) ;
#8 = ORIENTED_EDGE ( 'NONE', *, *, #178, .T. ) ;
#9 = PERSON_AND_ORGANIZATION ( #90, #149 ) ;
#10 = AXIS2_PLACEMENT_3D ( 'NONE', #1, #105, #259 ) ;
#11 = SECURITY_CLASSIFICATION_LEVEL ( 'unclassified' ) ;
#12 = DIRECTION ( 'NONE',  ( -3.491481338843133355E-15, 1.224646799147353207E-16, -1.000000000000000000 ) ) ;
#13 = CIRCLE ( 'NONE', #180, 0.9999999999999997780 ) ;
#14 = AXIS2_PLACEMENT_3D ( 'NONE', #250, #257, #56 ) ;
#15 = CARTESIAN_POINT ( 'NONE',  ( 1.326762908760390423E-13, -4.653657836759941941E-15, 38.00000000000000000 ) ) ;
#16 = EDGE_CURVE ( 'NONE', #205, #229, #57, .T. ) ;
#17 = EDGE_LOOP ( 'NONE', ( #287, #235, #58 ) ) ;
#18 = CARTESIAN_POINT ( 'NONE',  ( 2.015807690851652196E-15, -7.070501591499428325E-17, 0.5773502691896298389 ) ) ;
#19 = VERTEX_POINT ( 'NONE', #76 ) ;
#20 =( NAMED_UNIT ( * ) SI_UNIT ( $, .STERADIAN. ) SOLID_ANGLE_UNIT ( ) );
#21 = ORIENTED_EDGE ( 'NONE', *, *, #16, .F. ) ;
#22 = LINE ( 'NONE', #265, #79 ) ;
#23 = DIRECTION ( 'NONE',  ( -3.491481338843133355E-15, 1.224646799147353207E-16, -1.000000000000000000 ) ) ;
#24 = VECTOR ( 'NONE', #198, 1000.000000000000227 ) ;
#25 = EDGE_CURVE ( 'NONE', #32, #101, #156, .T. ) ;
#26 = DIRECTION ( 'NONE',  ( 0.0000000000000000000, 1.000000000000000000, 0.0000000000000000000 ) ) ;
#27 = LOCAL_TIME ( 9, 28, 21.00000000000000000, #245 ) ;
#28 = CC_DESIGN_PERSON_AND_ORGANIZATION_ASSIGNMENT ( #59, #261, ( #260 ) ) ;
#29 = MANIFOLD_SOLID_BREP ( 'Corps-Déplacer/Copier1[1]', #87 ) ;
#30 = CIRCLE ( 'NONE', #202, 0.7999999999999999334 ) ;
#31 = DIRECTION ( 'NONE',  ( -3.491481338843133355E-15, 1.224646799147353207E-16, -1.000000000000000000 ) ) ;
#32 = VERTEX_POINT ( 'NONE', #80 ) ;
#33 = CARTESIAN_POINT ( 'NONE',  ( 1.326762908760390423E-13, 0.7999999999999952704, 38.00000000000000000 ) ) ;
#34 = ORIENTED_EDGE ( 'NONE', *, *, #258, .T. ) ;
#35 = APPROVAL ( #276, 'UNSPECIFIED' ) ;
#36 = DIRECTION ( 'NONE',  ( -3.491481338843133355E-15, 1.224646799147353207E-16, -1.000000000000000000 ) ) ;
#37 = DESIGN_CONTEXT ( 'detailed design', #231, 'design' ) ;
#38 = DIRECTION ( 'NONE',  ( -3.491481338843133355E-15, 1.224646799147353207E-16, -1.000000000000000000 ) ) ;
#39 = ORIENTED_EDGE ( 'NONE', *, *, #244, .T. ) ;
#40 = AXIS2_PLACEMENT_3D ( 'NONE', #204, #215, #267 ) ;
#41 = PLANE ( 'NONE',  #200 ) ;
#42 = DIRECTION ( 'NONE',  ( 3.491481338843133355E-15, -1.224646799147353207E-16, 1.000000000000000000 ) ) ;
#43 = DIRECTION ( 'NONE',  ( 0.0000000000000000000, 1.000000000000000000, 0.0000000000000000000 ) ) ;
#44 = CARTESIAN_POINT ( 'NONE',  ( 1.327742626199708354E-13, -0.8000000000000045963, 38.00000000000000000 ) ) ;
#45 = PERSON_AND_ORGANIZATION_ROLE ( 'design_supplier' ) ;
#46 = LOCAL_TIME ( 9, 28, 21.00000000000000000, #131 ) ;
#47 = AXIS2_PLACEMENT_3D ( 'NONE', #15, #147, #123 ) ;
#48 = PERSON_AND_ORGANIZATION ( #90, #149 ) ;
#49 = CC_DESIGN_PERSON_AND_ORGANIZATION_ASSIGNMENT ( #203, #45, ( #86 ) ) ;
#50 = DIRECTION ( 'NONE',  ( -3.491481338843133355E-15, 1.224646799147353207E-16, -1.000000000000000000 ) ) ;
#51 = ORIENTED_EDGE ( 'NONE', *, *, #16, .T. ) ;
#52 = EDGE_CURVE ( 'NONE', #2, #32, #232, .T. ) ;
#53 = CARTESIAN_POINT ( 'NONE',  ( 0.0000000000000000000, 0.0000000000000000000, 0.0000000000000000000 ) ) ;
#54 = ORIENTED_EDGE ( 'NONE', *, *, #212, .F. ) ;
#55 = AXIS2_PLACEMENT_3D ( 'NONE', #111, #23, #214 ) ;
#56 = DIRECTION ( 'NONE',  ( 4.275831445896958607E-31, 1.000000000000000000, 1.224646799147353207E-16 ) ) ;
#57 = LINE ( 'NONE', #213, #134 ) ;
#58 = ORIENTED_EDGE ( 'NONE', *, *, #25, .T. ) ;
#59 = PERSON_AND_ORGANIZATION ( #90, #149 ) ;
#60 = VERTEX_POINT ( 'NONE', #33 ) ;
#61 = CIRCLE ( 'NONE', #68, 0.9999999999999954481 ) ;
#62 = DIRECTION ( 'NONE',  ( -3.491481338843133355E-15, 1.224646799147353207E-16, -1.000000000000000000 ) ) ;
#63 = CLOSED_SHELL ( 'NONE', ( #107, #174, #234 ) ) ;
#64 = FACE_OUTER_BOUND ( 'NONE', #140, .T. ) ;
#65 = ADVANCED_FACE ( 'NONE', ( #207 ), #97, .T. ) ;
#66 = PRODUCT_RELATED_PRODUCT_CATEGORY ( 'detail', '', ( #260 ) ) ;
#67 = DIRECTION ( 'NONE',  ( -3.491481338843133355E-15, 1.224646799147353207E-16, -1.000000000000000000 ) ) ;
#68 = AXIS2_PLACEMENT_3D ( 'NONE', #125, #62, #104 ) ;
#69 = DATE_AND_TIME ( #136, #128 ) ;
#70 = DATE_AND_TIME ( #181, #167 ) ;
#71 = APPROVAL_DATE_TIME ( #69, #98 ) ;
#72 = AXIS2_PLACEMENT_3D ( 'NONE', #284, #94, #118 ) ;
#73 = PERSON_AND_ORGANIZATION_ROLE ( 'creator' ) ;
#74 = FACE_OUTER_BOUND ( 'NONE', #194, .T. ) ;
#75 = CARTESIAN_POINT ( 'NONE',  ( 1.326762908760390423E-13, -4.653657836759941941E-15, 38.00000000000000000 ) ) ;
#76 = CARTESIAN_POINT ( 'NONE',  ( 1.319779946082704535E-13, 0.9999999999999952260, 37.79999999999999716 ) ) ;
#77 = ORIENTED_EDGE ( 'NONE', *, *, #251, .F. ) ;
#78 = DIRECTION ( 'NONE',  ( 3.851859888774489222E-31, 1.000000000000000000, 1.084202172485509364E-16 ) ) ;
#79 = VECTOR ( 'NONE', #152, 1000.000000000000000 ) ;
#80 = CARTESIAN_POINT ( 'NONE',  ( 2.015807690851651802E-15, -0.9999999999999954481, 0.5773502691896297279 ) ) ;
#81 = ORIENTED_EDGE ( 'NONE', *, *, #25, .F. ) ;
#82 = CARTESIAN_POINT ( 'NONE',  ( 6.711936582947549373E-14, -1.000000000000004441, 37.79999999999999716 ) ) ;
#83 = EDGE_LOOP ( 'NONE', ( #21, #117, #8, #54 ) ) ;
#84 = CARTESIAN_POINT ( 'NONE',  ( 1.319779946082704535E-13, -4.629164900776995227E-15, 37.79999999999999716 ) ) ;
#85 = ADVANCED_FACE ( 'NONE', ( #99 ), #227, .T. ) ;
#86 = PRODUCT_DEFINITION_FORMATION_WITH_SPECIFIED_SOURCE ( 'ANY', '', #260, .NOT_KNOWN. ) ;
#87 = CLOSED_SHELL ( 'NONE', ( #196, #85, #201, #143, #65, #279 ) ) ;
#88 = CARTESIAN_POINT ( 'NONE',  ( 2.138272370766386950E-15, 0.9999999999999954481, 0.5773502691896299499 ) ) ;
#89 = DATE_AND_TIME ( #270, #27 ) ;
#90 = PERSON ( 'UNSPECIFIED', 'UNSPECIFIED', 'UNSPECIFIED', ('UNSPECIFIED'), ('UNSPECIFIED'), ('UNSPECIFIED') ) ;
#91 = PERSON_AND_ORGANIZATION ( #90, #149 ) ;
#92 = APPROVAL_STATUS ( 'not_yet_approved' ) ;
#93 = APPLICATION_CONTEXT ( 'configuration controlled 3d designs of mechanical parts and assemblies' ) ;
#94 = DIRECTION ( 'NONE',  ( 3.491481338843133355E-15, -1.224646799147353207E-16, 1.000000000000000000 ) ) ;
#95 = EDGE_LOOP ( 'NONE', ( #255, #166, #253, #77 ) ) ;
#96 = CARTESIAN_POINT ( 'NONE',  ( 2.015807690851652196E-15, -7.070501591499428325E-17, 0.5773502691896298389 ) ) ;
#97 = CONICAL_SURFACE ( 'NONE', #47, 0.7999999999999999334, 0.7853981633974510546 ) ;
#98 = APPROVAL ( #243, 'UNSPECIFIED' ) ;
#99 = FACE_OUTER_BOUND ( 'NONE', #226, .T. ) ;
#100 = DIRECTION ( 'NONE',  ( -3.491481338843133355E-15, 1.224646799147353207E-16, -1.000000000000000000 ) ) ;
#101 = VERTEX_POINT ( 'NONE', #190 ) ;
#102 = LINE ( 'NONE', #286, #4 ) ;
#103 = ORIENTED_EDGE ( 'NONE', *, *, #212, .T. ) ;
#104 = DIRECTION ( 'NONE',  ( 3.851859888774489222E-31, 1.000000000000000000, 1.084202172485509364E-16 ) ) ;
#105 = DIRECTION ( 'NONE',  ( 0.0000000000000000000, 0.0000000000000000000, 1.000000000000000000 ) ) ;
#106 = ORIENTED_EDGE ( 'NONE', *, *, #133, .T. ) ;
#107 = ADVANCED_FACE ( 'NONE', ( #193 ), #230, .T. ) ;
#108 = APPROVAL_PERSON_ORGANIZATION ( #91, #35, #219 ) ;
#109 = CARTESIAN_POINT ( 'NONE',  ( 1.326762908760390423E-13, -4.653657836759941941E-15, 38.00000000000000000 ) ) ;
#110 = AXIS2_PLACEMENT_3D ( 'NONE', #168, #281, #78 ) ;
#111 = CARTESIAN_POINT ( 'NONE',  ( 1.326762908760390170E-13, -3.295974604355933479E-13, 37.99999999999999289 ) ) ;
#112 = CONICAL_SURFACE ( 'NONE', #224, 0.7999999999999999334, 0.7853981633974510546 ) ;
#113 = PERSON_AND_ORGANIZATION_ROLE ( 'creator' ) ;
#114 = APPROVAL_ROLE ( '' ) ;
#115 = LOCAL_TIME ( 9, 28, 21.00000000000000000, #223 ) ;
#116 = PLANE ( 'NONE',  #40 ) ;
#117 = ORIENTED_EDGE ( 'NONE', *, *, #251, .T. ) ;
#118 = DIRECTION ( 'NONE',  ( -3.851859888774489222E-31, -1.000000000000000000, -1.084202172485509364E-16 ) ) ;
#119 = MANIFOLD_SOLID_BREP ( 'Corps-Déplacer/Copier1[2]', #63 ) ;
#120 = AXIS2_PLACEMENT_3D ( 'NONE', #96, #31, #188 ) ;
#121 = CARTESIAN_POINT ( 'NONE',  ( 0.0000000000000000000, 0.0000000000000000000, 0.0000000000000000000 ) ) ;
#122 = EDGE_LOOP ( 'NONE', ( #81, #273 ) ) ;
#123 = DIRECTION ( 'NONE',  ( 0.0000000000000000000, 1.000000000000000000, 0.0000000000000000000 ) ) ;
#124 = DIRECTION ( 'NONE',  ( 0.0000000000000000000, 1.000000000000000000, 0.0000000000000000000 ) ) ;
#125 = CARTESIAN_POINT ( 'NONE',  ( 2.015807690851652196E-15, -7.070501591499428325E-17, 0.5773502691896298389 ) ) ;
#126 = ORIENTED_EDGE ( 'NONE', *, *, #183, .F. ) ;
#127 = DIRECTION ( 'NONE',  ( 3.851859888774489222E-31, 1.000000000000000000, 1.084202172485509364E-16 ) ) ;
#128 = LOCAL_TIME ( 9, 28, 21.00000000000000000, #247 ) ;
#129 =( NAMED_UNIT ( * ) PLANE_ANGLE_UNIT ( ) SI_UNIT ( $, .RADIAN. ) );
#130 = DATE_TIME_ROLE ( 'classification_date' ) ;
#131 = COORDINATED_UNIVERSAL_TIME_OFFSET ( 1, 0, .AHEAD. ) ;
#132 = CC_DESIGN_APPROVAL ( #137, ( #86 ) ) ;
#133 = EDGE_CURVE ( 'NONE', #189, #229, #208, .T. ) ;
#134 = VECTOR ( 'NONE', #36, 1000.000000000000000 ) ;
#135 = ADVANCED_BREP_SHAPE_REPRESENTATION ( '985120', ( #29, #119, #10 ), #280 ) ;
#136 = CALENDAR_DATE ( 2021, 2, 9 ) ;
#137 = APPROVAL ( #92, 'UNSPECIFIED' ) ;
#138 = CC_DESIGN_PERSON_AND_ORGANIZATION_ASSIGNMENT ( #158, #113, ( #86 ) ) ;
#139 = DIRECTION ( 'NONE',  ( 0.0000000000000000000, 1.000000000000000000, 0.0000000000000000000 ) ) ;
#140 = EDGE_LOOP ( 'NONE', ( #7, #126 ) ) ;
#141 = PRODUCT_DEFINITION_SHAPE ( 'NONE', 'NONE',  #263 ) ;
#142 = ORIENTED_EDGE ( 'NONE', *, *, #133, .F. ) ;
#143 = ADVANCED_FACE ( 'NONE', ( #282 ), #164, .T. ) ;
#144 = AXIS2_PLACEMENT_3D ( 'NONE', #18, #254, #184 ) ;
#145 = DIRECTION ( 'NONE',  ( 1.745740669421581074E-15, -0.8660254037844362651, 0.5000000000000041078 ) ) ;
#146 = VERTEX_POINT ( 'NONE', #252 ) ;
#147 = DIRECTION ( 'NONE',  ( -3.491481338843133355E-15, 1.224646799147353207E-16, -1.000000000000000000 ) ) ;
#148 = CARTESIAN_POINT ( 'NONE',  ( 2.015807690851652196E-15, -7.070501591499428325E-17, 0.5773502691896298389 ) ) ;
#149 = ORGANIZATION ( 'UNSPECIFIED', 'UNSPECIFIED', '' ) ;
#150 = CARTESIAN_POINT ( 'NONE',  ( 2.015807690851651407E-15, -1.877893248421470236E-16, 0.5773502691896296168 ) ) ;
#151 = DIRECTION ( 'NONE',  ( -2.382254525458709186E-15, -0.7071067811865493491, -0.7071067811865456854 ) ) ;
#152 = DIRECTION ( 'NONE',  ( -2.468850131082258244E-15, 0.7071067811865495711, -0.7071067811865454633 ) ) ;
#153 = DATE_AND_TIME ( #199, #46 ) ;
#154 = CALENDAR_DATE ( 2021, 2, 9 ) ;
#155 = PERSON_AND_ORGANIZATION ( #90, #149 ) ;
#156 = CIRCLE ( 'NONE', #120, 0.9999999999999954481 ) ;
#157 = CC_DESIGN_PERSON_AND_ORGANIZATION_ASSIGNMENT ( #155, #73, ( #263 ) ) ;
#158 = PERSON_AND_ORGANIZATION ( #90, #149 ) ;
#159 = COORDINATED_UNIVERSAL_TIME_OFFSET ( 1, 0, .AHEAD. ) ;
#160 = AXIS2_PLACEMENT_3D ( 'NONE', #238, #173, #26 ) ;
#161 = CARTESIAN_POINT ( 'NONE',  ( 1.326762908760390423E-13, -4.653657836759941941E-15, 38.00000000000000000 ) ) ;
#162 = CARTESIAN_POINT ( 'NONE',  ( 2.015807690851651802E-15, -0.9999999999999954481, 0.5773502691896297279 ) ) ;
#163 = ORIENTED_EDGE ( 'NONE', *, *, #52, .F. ) ;
#164 = CYLINDRICAL_SURFACE ( 'NONE', #14, 0.9999999999999976685 ) ;
#165 = UNCERTAINTY_MEASURE_WITH_UNIT (LENGTH_MEASURE( 1.000000000000000082E-05 ), #239, 'distance_accuracy_value', 'NONE');
#166 = ORIENTED_EDGE ( 'NONE', *, *, #183, .T. ) ;
#167 = LOCAL_TIME ( 9, 28, 21.00000000000000000, #159 ) ;
#168 = CARTESIAN_POINT ( 'NONE',  ( 2.015807690851652196E-15, -7.070501591499428325E-17, 0.5773502691896298389 ) ) ;
#169 = CARTESIAN_POINT ( 'NONE',  ( 6.711936582947570830E-14, -0.9999999999999954481, 0.5773502691896297279 ) ) ;
#170 = ORIENTED_EDGE ( 'NONE', *, *, #248, .F. ) ;
#171 = APPLICATION_PROTOCOL_DEFINITION ( 'international standard', 'config_control_design', 1994, #93 ) ;
#172 = VECTOR ( 'NONE', #145, 1000.000000000000114 ) ;
#173 = DIRECTION ( 'NONE',  ( -3.491481338843133355E-15, 1.224646799147353207E-16, -1.000000000000000000 ) ) ;
#174 = ADVANCED_FACE ( 'NONE', ( #211 ), #275, .T. ) ;
#175 = CIRCLE ( 'NONE', #262, 0.7999999999999999334 ) ;
#176 = APPROVAL_DATE_TIME ( #153, #35 ) ;
#177 = APPLICATION_PROTOCOL_DEFINITION ( 'international standard', 'config_control_design', 1994, #231 ) ;
#178 = EDGE_CURVE ( 'NONE', #19, #189, #102, .T. ) ;
#179 = DATE_TIME_ROLE ( 'creation_date' ) ;
#180 = AXIS2_PLACEMENT_3D ( 'NONE', #84, #195, #3 ) ;
#181 = CALENDAR_DATE ( 2021, 2, 9 ) ;
#182 = PERSON_AND_ORGANIZATION_ROLE ( 'classification_officer' ) ;
#183 = EDGE_CURVE ( 'NONE', #146, #60, #30, .T. ) ;
#184 = DIRECTION ( 'NONE',  ( -3.851859888774489222E-31, -1.000000000000000000, -1.084202172485509364E-16 ) ) ;
#185 = APPROVAL_PERSON_ORGANIZATION ( #274, #98, #272 ) ;
#186 = ORIENTED_EDGE ( 'NONE', *, *, #258, .F. ) ;
#187 = EDGE_LOOP ( 'NONE', ( #106, #103 ) ) ;
#188 = DIRECTION ( 'NONE',  ( 3.851859888774489222E-31, 1.000000000000000000, 1.084202172485509364E-16 ) ) ;
#189 = VERTEX_POINT ( 'NONE', #278 ) ;
#190 = CARTESIAN_POINT ( 'NONE',  ( 2.138272370766386950E-15, 0.9999999999999954481, 0.5773502691896299499 ) ) ;
#191 = ORIENTED_EDGE ( 'NONE', *, *, #209, .T. ) ;
#192 = CC_DESIGN_DATE_AND_TIME_ASSIGNMENT ( #89, #179, ( #263 ) ) ;
#193 = FACE_OUTER_BOUND ( 'NONE', #277, .T. ) ;
#194 = EDGE_LOOP ( 'NONE', ( #233, #271, #186, #170 ) ) ;
#195 = DIRECTION ( 'NONE',  ( -3.491481338843133355E-15, 1.224646799147353207E-16, -1.000000000000000000 ) ) ;
#196 = ADVANCED_FACE ( 'NONE', ( #74 ), #112, .T. ) ;
#197 = PLANE ( 'NONE',  #55 ) ;
#198 = DIRECTION ( 'NONE',  ( 1.851798193294072678E-15, 0.8660254037844361541, 0.5000000000000044409 ) ) ;
#199 = CALENDAR_DATE ( 2021, 2, 9 ) ;
#200 = AXIS2_PLACEMENT_3D ( 'NONE', #150, #42, #216 ) ;
#201 = ADVANCED_FACE ( 'NONE', ( #225 ), #116, .F. ) ;
#202 = AXIS2_PLACEMENT_3D ( 'NONE', #75, #38, #124 ) ;
#203 = PERSON_AND_ORGANIZATION ( #90, #149 ) ;
#204 = CARTESIAN_POINT ( 'NONE',  ( 2.015807690851651407E-15, -1.877893248421470236E-16, 0.5773502691896296168 ) ) ;
#205 = VERTEX_POINT ( 'NONE', #82 ) ;
#206 = CC_DESIGN_APPROVAL ( #98, ( #263 ) ) ;
#207 = FACE_OUTER_BOUND ( 'NONE', #95, .T. ) ;
#208 = CIRCLE ( 'NONE', #110, 0.9999999999999954481 ) ;
#209 = EDGE_CURVE ( 'NONE', #101, #32, #237, .T. ) ;
#210 = DIRECTION ( 'NONE',  ( 4.275831445896958607E-31, 1.000000000000000000, 1.224646799147353207E-16 ) ) ;
#211 = FACE_OUTER_BOUND ( 'NONE', #17, .T. ) ;
#212 = EDGE_CURVE ( 'NONE', #229, #189, #61, .T. ) ;
#213 = CARTESIAN_POINT ( 'NONE',  ( 1.224646799147346058E-16, -0.9999999999999976685, -1.224646799147354686E-16 ) ) ;
#214 = DIRECTION ( 'NONE',  ( 4.275831445896958607E-31, 1.000000000000000000, 1.224646799147353207E-16 ) ) ;
#215 = DIRECTION ( 'NONE',  ( 3.491481338843133355E-15, -1.224646799147353207E-16, 1.000000000000000000 ) ) ;
#216 = DIRECTION ( 'NONE',  ( -4.275831445896958607E-31, -1.000000000000000000, -1.224646799147353207E-16 ) ) ;
#217 = VECTOR ( 'NONE', #151, 1000.000000000000000 ) ;
#218 = SHAPE_DEFINITION_REPRESENTATION ( #141, #135 ) ;
#219 = APPROVAL_ROLE ( '' ) ;
#220 = CC_DESIGN_SECURITY_CLASSIFICATION ( #241, ( #86 ) ) ;
#221 = CC_DESIGN_DATE_AND_TIME_ASSIGNMENT ( #249, #130, ( #241 ) ) ;
#222 = APPROVAL_DATE_TIME ( #70, #137 ) ;
#223 = COORDINATED_UNIVERSAL_TIME_OFFSET ( 1, 0, .AHEAD. ) ;
#224 = AXIS2_PLACEMENT_3D ( 'NONE', #161, #50, #139 ) ;
#225 = FACE_OUTER_BOUND ( 'NONE', #187, .T. ) ;
#226 = EDGE_LOOP ( 'NONE', ( #34, #51, #142, #228 ) ) ;
#227 = CYLINDRICAL_SURFACE ( 'NONE', #264, 0.9999999999999976685 ) ;
#228 = ORIENTED_EDGE ( 'NONE', *, *, #178, .F. ) ;
#229 = VERTEX_POINT ( 'NONE', #169 ) ;
#230 = CONICAL_SURFACE ( 'NONE', #72, 0.9999999999999954481, 1.047197551196592746 ) ;
#231 = APPLICATION_CONTEXT ( 'configuration controlled 3d designs of mechanical parts and assemblies' ) ;
#232 = LINE ( 'NONE', #162, #172 ) ;
#233 = ORIENTED_EDGE ( 'NONE', *, *, #283, .T. ) ;
#234 = ADVANCED_FACE ( 'NONE', ( #266 ), #41, .T. ) ;
#235 = ORIENTED_EDGE ( 'NONE', *, *, #52, .T. ) ;
#236 = MECHANICAL_CONTEXT ( 'NONE', #93, 'mechanical' ) ;
#237 = CIRCLE ( 'NONE', #256, 0.9999999999999954481 ) ;
#238 = CARTESIAN_POINT ( 'NONE',  ( 1.319779946082704535E-13, -4.629164900776995227E-15, 37.79999999999999716 ) ) ;
#239 =( LENGTH_UNIT ( ) NAMED_UNIT ( * ) SI_UNIT ( .MILLI., .METRE. ) );
#240 = DIRECTION ( 'NONE',  ( -3.491481338843133355E-15, 1.224646799147353207E-16, -1.000000000000000000 ) ) ;
#241 = SECURITY_CLASSIFICATION ( '', '', #11 ) ;
#242 = LINE ( 'NONE', #88, #24 ) ;
#243 = APPROVAL_STATUS ( 'not_yet_approved' ) ;
#244 = EDGE_CURVE ( 'NONE', #2, #101, #242, .T. ) ;
#245 = COORDINATED_UNIVERSAL_TIME_OFFSET ( 1, 0, .AHEAD. ) ;
#246 = APPROVAL_PERSON_ORGANIZATION ( #9, #137, #114 ) ;
#247 = COORDINATED_UNIVERSAL_TIME_OFFSET ( 1, 0, .AHEAD. ) ;
#248 = EDGE_CURVE ( 'NONE', #60, #19, #22, .T. ) ;
#249 = DATE_AND_TIME ( #154, #115 ) ;
#250 = CARTESIAN_POINT ( 'NONE',  ( 0.0000000000000000000, 0.0000000000000000000, 0.0000000000000000000 ) ) ;
#251 = EDGE_CURVE ( 'NONE', #205, #19, #13, .T. ) ;
#252 = CARTESIAN_POINT ( 'NONE',  ( 1.324373609540779741E-13, -0.8000000000000045963, 38.00000000000000000 ) ) ;
#253 = ORIENTED_EDGE ( 'NONE', *, *, #248, .T. ) ;
#254 = DIRECTION ( 'NONE',  ( 3.491481338843133355E-15, -1.224646799147353207E-16, 1.000000000000000000 ) ) ;
#255 = ORIENTED_EDGE ( 'NONE', *, *, #269, .F. ) ;
#256 = AXIS2_PLACEMENT_3D ( 'NONE', #148, #67, #127 ) ;
#257 = DIRECTION ( 'NONE',  ( -3.491481338843133355E-15, 1.224646799147353207E-16, -1.000000000000000000 ) ) ;
#258 = EDGE_CURVE ( 'NONE', #19, #205, #268, .T. ) ;
#259 = DIRECTION ( 'NONE',  ( 1.000000000000000000, 0.0000000000000000000, 0.0000000000000000000 ) ) ;
#260 = PRODUCT ( '985120', '985120', '', ( #236 ) ) ;
#261 = PERSON_AND_ORGANIZATION_ROLE ( 'design_owner' ) ;
#262 = AXIS2_PLACEMENT_3D ( 'NONE', #109, #240, #43 ) ;
#263 = PRODUCT_DEFINITION ( 'UNKNOWN', '', #86, #37 ) ;
#264 = AXIS2_PLACEMENT_3D ( 'NONE', #121, #100, #210 ) ;
#265 = CARTESIAN_POINT ( 'NONE',  ( 1.326762908760390423E-13, 0.7999999999999952704, 38.00000000000000000 ) ) ;
#266 = FACE_OUTER_BOUND ( 'NONE', #122, .T. ) ;
#267 = DIRECTION ( 'NONE',  ( -4.275831445896958607E-31, -1.000000000000000000, -1.224646799147353207E-16 ) ) ;
#268 = CIRCLE ( 'NONE', #160, 0.9999999999999997780 ) ;
#269 = EDGE_CURVE ( 'NONE', #146, #205, #6, .T. ) ;
#270 = CALENDAR_DATE ( 2021, 2, 9 ) ;
#271 = ORIENTED_EDGE ( 'NONE', *, *, #269, .T. ) ;
#272 = APPROVAL_ROLE ( '' ) ;
#273 = ORIENTED_EDGE ( 'NONE', *, *, #209, .F. ) ;
#274 = PERSON_AND_ORGANIZATION ( #90, #149 ) ;
#275 = CONICAL_SURFACE ( 'NONE', #144, 0.9999999999999954481, 1.047197551196592746 ) ;
#276 = APPROVAL_STATUS ( 'not_yet_approved' ) ;
#277 = EDGE_LOOP ( 'NONE', ( #163, #39, #191 ) ) ;
#278 = CARTESIAN_POINT ( 'NONE',  ( 2.015807690851652590E-15, 0.9999999999999954481, 0.5773502691896299499 ) ) ;
#279 = ADVANCED_FACE ( 'NONE', ( #64 ), #197, .F. ) ;
#280 =( GEOMETRIC_REPRESENTATION_CONTEXT ( 3 ) GLOBAL_UNCERTAINTY_ASSIGNED_CONTEXT ( ( #165 ) ) GLOBAL_UNIT_ASSIGNED_CONTEXT ( ( #239, #129, #20 ) ) REPRESENTATION_CONTEXT ( 'NONE', 'WORKASPACE' ) );
#281 = DIRECTION ( 'NONE',  ( -3.491481338843133355E-15, 1.224646799147353207E-16, -1.000000000000000000 ) ) ;
#282 = FACE_OUTER_BOUND ( 'NONE', #83, .T. ) ;
#283 = EDGE_CURVE ( 'NONE', #60, #146, #175, .T. ) ;
#284 = CARTESIAN_POINT ( 'NONE',  ( 2.015807690851652196E-15, -7.070501591499428325E-17, 0.5773502691896298389 ) ) ;
#285 = CC_DESIGN_APPROVAL ( #35, ( #241 ) ) ;
#286 = CARTESIAN_POINT ( 'NONE',  ( 4.275831445896948973E-31, 0.9999999999999976685, 1.224646799147350249E-16 ) ) ;
#287 = ORIENTED_EDGE ( 'NONE', *, *, #244, .F. ) ;
ENDSEC;
END-ISO-10303-21;
