ISO-10303-21;
HEADER;
FILE_DESCRIPTION (( 'STEP AP203' ),
    '1' );
FILE_NAME ('985118.step',
    '2021-09-02T07:28:20',
    ( '' ),
    ( '' ),
    'SwSTEP 2.0',
    'SolidWorks 2019',
    '' );
FILE_SCHEMA (( 'CONFIG_CONTROL_DESIGN' ));
ENDSEC;

DATA;
#1 = PLANE ( 'NONE',  #217 ) ;
#2 = ORIENTED_EDGE ( 'NONE', *, *, #114, .F. ) ;
#3 = VERTEX_POINT ( 'NONE', #108 ) ;
#4 = APPLICATION_PROTOCOL_DEFINITION ( 'international standard', 'config_control_design', 1994, #268 ) ;
#5 = CIRCLE ( 'NONE', #166, 0.3999999999999935829 ) ;
#6 = ORIENTED_EDGE ( 'NONE', *, *, #143, .T. ) ;
#7 = DIRECTION ( 'NONE',  ( 0.0000000000000000000, 0.0000000000000000000, 1.000000000000000000 ) ) ;
#8 = APPROVAL ( #187, 'UNSPECIFIED' ) ;
#9 = ORIENTED_EDGE ( 'NONE', *, *, #114, .T. ) ;
#10 = DIRECTION ( 'NONE',  ( 1.745740669421582060E-15, -0.8660254037844361541, 0.5000000000000043299 ) ) ;
#11 = VERTEX_POINT ( 'NONE', #151 ) ;
#12 = CALENDAR_DATE ( 2021, 2, 9 ) ;
#13 = VECTOR ( 'NONE', #200, 1000.000000000000114 ) ;
#14 = DATE_AND_TIME ( #12, #79 ) ;
#15 = ORIENTED_EDGE ( 'NONE', *, *, #271, .T. ) ;
#16 = COORDINATED_UNIVERSAL_TIME_OFFSET ( 1, 0, .AHEAD. ) ;
#17 = VERTEX_POINT ( 'NONE', #85 ) ;
#18 = APPROVAL_ROLE ( '' ) ;
#19 = PERSON_AND_ORGANIZATION ( #31, #238 ) ;
#20 = CARTESIAN_POINT ( 'NONE',  ( 1.007903845425807560E-15, -3.535250795749649451E-17, 0.2886751345948095904 ) ) ;
#21 = VECTOR ( 'NONE', #86, 1000.000000000000000 ) ;
#22 = APPROVAL_PERSON_ORGANIZATION ( #243, #8, #18 ) ;
#23 = ORIENTED_EDGE ( 'NONE', *, *, #168, .F. ) ;
#24 = ADVANCED_FACE ( 'NONE', ( #176 ), #286, .F. ) ;
#25 = CARTESIAN_POINT ( 'NONE',  ( 0.0000000000000000000, 0.0000000000000000000, 0.0000000000000000000 ) ) ;
#26 = DIRECTION ( 'NONE',  ( 4.275831445896959482E-31, 1.000000000000000000, 1.224646799147353454E-16 ) ) ;
#27 = LINE ( 'NONE', #269, #162 ) ;
#28 = AXIS2_PLACEMENT_3D ( 'NONE', #222, #237, #105 ) ;
#29 = DIRECTION ( 'NONE',  ( 3.491481338843133355E-15, -1.224646799147353207E-16, 1.000000000000000000 ) ) ;
#30 = ORIENTED_EDGE ( 'NONE', *, *, #152, .F. ) ;
#31 = PERSON ( 'UNSPECIFIED', 'UNSPECIFIED', 'UNSPECIFIED', ('UNSPECIFIED'), ('UNSPECIFIED'), ('UNSPECIFIED') ) ;
#32 = ORIENTED_EDGE ( 'NONE', *, *, #284, .F. ) ;
#33 = DIRECTION ( 'NONE',  ( -3.491481338843133355E-15, 1.224646799147353207E-16, -1.000000000000000000 ) ) ;
#34 = SECURITY_CLASSIFICATION ( '', '', #38 ) ;
#35 = EDGE_LOOP ( 'NONE', ( #177, #9, #82, #182 ) ) ;
#36 = ADVANCED_FACE ( 'NONE', ( #258 ), #90, .T. ) ;
#37 = CC_DESIGN_PERSON_AND_ORGANIZATION_ASSIGNMENT ( #272, #247, ( #34 ) ) ;
#38 = SECURITY_CLASSIFICATION_LEVEL ( 'unclassified' ) ;
#39 = AXIS2_PLACEMENT_3D ( 'NONE', #73, #223, #70 ) ;
#40 = DIRECTION ( 'NONE',  ( 3.491481338843133355E-15, -1.224646799147353207E-16, 1.000000000000000000 ) ) ;
#41 = DIRECTION ( 'NONE',  ( -3.491481338843133355E-15, 1.224646799147353207E-16, -1.000000000000000000 ) ) ;
#42 = APPROVAL_PERSON_ORGANIZATION ( #57, #228, #99 ) ;
#43 = DIRECTION ( 'NONE',  ( -4.275831445896958607E-31, -1.000000000000000000, -1.224646799147353207E-16 ) ) ;
#44 = CARTESIAN_POINT ( 'NONE',  ( 1.326762908760390170E-13, 2.999519565323597186E-33, 37.99999999999999289 ) ) ;
#45 = DIRECTION ( 'NONE',  ( -3.491481338843133355E-15, 1.224646799147353207E-16, -1.000000000000000000 ) ) ;
#46 = PRODUCT ( '985118', '985118', '', ( #242 ) ) ;
#47 = VECTOR ( 'NONE', #10, 1000.000000000000114 ) ;
#48 = DIRECTION ( 'NONE',  ( 1.000000000000000000, 0.0000000000000000000, 0.0000000000000000000 ) ) ;
#49 = PERSON_AND_ORGANIZATION_ROLE ( 'design_owner' ) ;
#50 = DIRECTION ( 'NONE',  ( -4.275831445896958607E-31, -1.000000000000000000, -1.224646799147353207E-16 ) ) ;
#51 = CIRCLE ( 'NONE', #287, 0.4999999999999882871 ) ;
#52 = CARTESIAN_POINT ( 'NONE',  ( 1.007903845425807560E-15, -3.535250795749649451E-17, 0.2886751345948095904 ) ) ;
#53 = ORIENTED_EDGE ( 'NONE', *, *, #271, .F. ) ;
#54 = VECTOR ( 'NONE', #68, 1000.000000000000000 ) ;
#55 = CC_DESIGN_APPROVAL ( #228, ( #34 ) ) ;
#56 = PRODUCT_DEFINITION ( 'UNKNOWN', '', #218, #174 ) ;
#57 = PERSON_AND_ORGANIZATION ( #31, #238 ) ;
#58 = EDGE_LOOP ( 'NONE', ( #204, #88, #142, #30 ) ) ;
#59 = DIRECTION ( 'NONE',  ( 4.275831445896958607E-31, 1.000000000000000000, 1.224646799147353207E-16 ) ) ;
#60 = ADVANCED_FACE ( 'NONE', ( #102 ), #131, .F. ) ;
#61 = DIRECTION ( 'NONE',  ( -3.491481338843133355E-15, 1.224646799147353207E-16, -1.000000000000000000 ) ) ;
#62 = AXIS2_PLACEMENT_3D ( 'NONE', #20, #282, #84 ) ;
#63 = DIRECTION ( 'NONE',  ( -3.491481338843133355E-15, 1.224646799147353207E-16, -1.000000000000000000 ) ) ;
#64 = CARTESIAN_POINT ( 'NONE',  ( 2.137915722948439892E-31, 0.4999999999999906741, 6.123233995736652637E-17 ) ) ;
#65 = CARTESIAN_POINT ( 'NONE',  ( 1.007903845425805982E-15, -5.007715329123918986E-16, 0.2886751345948091463 ) ) ;
#66 = EDGE_LOOP ( 'NONE', ( #227, #115, #6 ) ) ;
#67 = AXIS2_PLACEMENT_3D ( 'NONE', #25, #41, #107 ) ;
#68 = DIRECTION ( 'NONE',  ( 1.851798193294073467E-15, 0.8660254037844359321, 0.5000000000000046629 ) ) ;
#69 = ORIENTED_EDGE ( 'NONE', *, *, #178, .F. ) ;
#70 = DIRECTION ( 'NONE',  ( -3.851859888774561915E-31, -1.000000000000000000, -1.084202172485529825E-16 ) ) ;
#71 = ADVANCED_FACE ( 'NONE', ( #87 ), #173, .T. ) ;
#72 = PRODUCT_RELATED_PRODUCT_CATEGORY ( 'detail', '', ( #46 ) ) ;
#73 = CARTESIAN_POINT ( 'NONE',  ( 1.007903845425807560E-15, -3.535250795749649451E-17, 0.2886751345948095904 ) ) ;
#74 = FACE_OUTER_BOUND ( 'NONE', #119, .T. ) ;
#75 = CLOSED_SHELL ( 'NONE', ( #89, #135, #24, #71, #36, #60 ) ) ;
#76 = ORIENTED_EDGE ( 'NONE', *, *, #252, .T. ) ;
#77 = APPROVAL_DATE_TIME ( #214, #228 ) ;
#78 = AXIS2_PLACEMENT_3D ( 'NONE', #150, #63, #283 ) ;
#79 = LOCAL_TIME ( 9, 28, 20.00000000000000000, #273 ) ;
#80 = PERSON_AND_ORGANIZATION ( #31, #238 ) ;
#81 = SHAPE_DEFINITION_REPRESENTATION ( #270, #145 ) ;
#82 = ORIENTED_EDGE ( 'NONE', *, *, #178, .T. ) ;
#83 = CONICAL_SURFACE ( 'NONE', #62, 0.4999999999999882871, 1.047197551196592524 ) ;
#84 = DIRECTION ( 'NONE',  ( -3.851859888774561915E-31, -1.000000000000000000, -1.084202172485529825E-16 ) ) ;
#85 = CARTESIAN_POINT ( 'NONE',  ( 1.007903845425807363E-15, -0.4999999999999882871, 0.2886751345948095349 ) ) ;
#86 = DIRECTION ( 'NONE',  ( -3.491481338843133355E-15, 1.224646799147353207E-16, -1.000000000000000000 ) ) ;
#87 = FACE_OUTER_BOUND ( 'NONE', #58, .T. ) ;
#88 = ORIENTED_EDGE ( 'NONE', *, *, #127, .T. ) ;
#89 = ADVANCED_FACE ( 'NONE', ( #285 ), #109, .T. ) ;
#90 = CONICAL_SURFACE ( 'NONE', #28, 0.3999999999999935829, 0.7853981633974309595 ) ;
#91 = LINE ( 'NONE', #139, #133 ) ;
#92 = CC_DESIGN_SECURITY_CLASSIFICATION ( #34, ( #218 ) ) ;
#93 = ORIENTED_EDGE ( 'NONE', *, *, #152, .T. ) ;
#94 =( NAMED_UNIT ( * ) PLANE_ANGLE_UNIT ( ) SI_UNIT ( $, .RADIAN. ) );
#95 = VERTEX_POINT ( 'NONE', #198 ) ;
#96 = COORDINATED_UNIVERSAL_TIME_OFFSET ( 1, 0, .AHEAD. ) ;
#97 = PERSON_AND_ORGANIZATION_ROLE ( 'creator' ) ;
#98 = AXIS2_PLACEMENT_3D ( 'NONE', #170, #255, #149 ) ;
#99 = APPROVAL_ROLE ( '' ) ;
#100 = CARTESIAN_POINT ( 'NONE',  ( 1.323271427421547352E-13, -4.641411368768467795E-15, 37.89999999999999147 ) ) ;
#101 = MANIFOLD_SOLID_BREP ( 'Corps-Déplacer/Copier1[1]', #75 ) ;
#102 = FACE_OUTER_BOUND ( 'NONE', #136, .T. ) ;
#103 = LOCAL_TIME ( 9, 28, 20.00000000000000000, #96 ) ;
#104 = EDGE_CURVE ( 'NONE', #113, #3, #236, .T. ) ;
#105 = DIRECTION ( 'NONE',  ( 0.0000000000000000000, 1.000000000000000000, 0.0000000000000000000 ) ) ;
#106 = UNCERTAINTY_MEASURE_WITH_UNIT (LENGTH_MEASURE( 1.000000000000000082E-05 ), #137, 'distance_accuracy_value', 'NONE');
#107 = DIRECTION ( 'NONE',  ( 4.275831445896959482E-31, 1.000000000000000000, 1.224646799147353454E-16 ) ) ;
#108 = CARTESIAN_POINT ( 'NONE',  ( 1.007903845425807757E-15, 0.4999999999999882871, 0.2886751345948096459 ) ) ;
#109 = CONICAL_SURFACE ( 'NONE', #78, 0.3999999999999935829, 0.7853981633974309595 ) ;
#110 = DIRECTION ( 'NONE',  ( -3.491481338843133355E-15, 1.224646799147353207E-16, -1.000000000000000000 ) ) ;
#111 = EDGE_LOOP ( 'NONE', ( #206, #239, #32, #69 ) ) ;
#112 = PERSON_AND_ORGANIZATION ( #31, #238 ) ;
#113 = VERTEX_POINT ( 'NONE', #175 ) ;
#114 = EDGE_CURVE ( 'NONE', #11, #246, #190, .T. ) ;
#115 = ORIENTED_EDGE ( 'NONE', *, *, #168, .T. ) ;
#116 = CLOSED_SHELL ( 'NONE', ( #192, #165, #199 ) ) ;
#117 = CARTESIAN_POINT ( 'NONE',  ( 6.672875563374704673E-14, -0.4999999999999976130, 37.89999999999999147 ) ) ;
#118 = AXIS2_PLACEMENT_3D ( 'NONE', #208, #7, #48 ) ;
#119 = EDGE_LOOP ( 'NONE', ( #53, #160 ) ) ;
#120 = CARTESIAN_POINT ( 'NONE',  ( 1.007903845425807363E-15, -0.4999999999999882871, 0.2886751345948095349 ) ) ;
#121 = CIRCLE ( 'NONE', #180, 0.4999999999999929501 ) ;
#122 = APPROVAL_DATE_TIME ( #213, #8 ) ;
#123 = APPLICATION_CONTEXT ( 'configuration controlled 3d designs of mechanical parts and assemblies' ) ;
#124 = PERSON_AND_ORGANIZATION_ROLE ( 'creator' ) ;
#125 = CALENDAR_DATE ( 2021, 2, 9 ) ;
#126 = AXIS2_PLACEMENT_3D ( 'NONE', #100, #154, #132 ) ;
#127 = EDGE_CURVE ( 'NONE', #274, #113, #245, .T. ) ;
#128 = DIRECTION ( 'NONE',  ( 0.0000000000000000000, 1.000000000000000000, 0.0000000000000000000 ) ) ;
#129 = EDGE_LOOP ( 'NONE', ( #23, #156, #15 ) ) ;
#130 = CIRCLE ( 'NONE', #201, 0.4999999999999882871 ) ;
#131 = PLANE ( 'NONE',  #233 ) ;
#132 = DIRECTION ( 'NONE',  ( 0.0000000000000000000, 1.000000000000000000, 0.0000000000000000000 ) ) ;
#133 = VECTOR ( 'NONE', #141, 1000.000000000000000 ) ;
#134 = CARTESIAN_POINT ( 'NONE',  ( 1.069136185383173951E-15, 0.4999999999999882871, 0.2886751345948096459 ) ) ;
#135 = ADVANCED_FACE ( 'NONE', ( #216 ), #220, .T. ) ;
#136 = EDGE_LOOP ( 'NONE', ( #235, #2 ) ) ;
#137 =( LENGTH_UNIT ( ) NAMED_UNIT ( * ) SI_UNIT ( .MILLI., .METRE. ) );
#138 = ORIENTED_EDGE ( 'NONE', *, *, #207, .F. ) ;
#139 = CARTESIAN_POINT ( 'NONE',  ( 6.123233995736630450E-17, -0.4999999999999906741, -6.123233995736673591E-17 ) ) ;
#140 = EDGE_CURVE ( 'NONE', #11, #274, #195, .T. ) ;
#141 = DIRECTION ( 'NONE',  ( -3.491481338843133355E-15, 1.224646799147353207E-16, -1.000000000000000000 ) ) ;
#142 = ORIENTED_EDGE ( 'NONE', *, *, #104, .T. ) ;
#143 = EDGE_CURVE ( 'NONE', #95, #17, #51, .T. ) ;
#144 = LOCAL_TIME ( 9, 28, 20.00000000000000000, #16 ) ;
#145 = ADVANCED_BREP_SHAPE_REPRESENTATION ( '985118', ( #101, #203, #118 ), #229 ) ;
#146 = CC_DESIGN_PERSON_AND_ORGANIZATION_ASSIGNMENT ( #112, #49, ( #46 ) ) ;
#147 = APPROVAL_STATUS ( 'not_yet_approved' ) ;
#148 = CC_DESIGN_PERSON_AND_ORGANIZATION_ASSIGNMENT ( #80, #97, ( #56 ) ) ;
#149 = DIRECTION ( 'NONE',  ( 3.851859888774561915E-31, 1.000000000000000000, 1.084202172485529825E-16 ) ) ;
#150 = CARTESIAN_POINT ( 'NONE',  ( 1.326762908760390170E-13, -4.653657836759941152E-15, 37.99999999999999289 ) ) ;
#151 = CARTESIAN_POINT ( 'NONE',  ( 1.325568259150584830E-13, -0.3999999999999982458, 37.99999999999999289 ) ) ;
#152 = EDGE_CURVE ( 'NONE', #184, #3, #171, .T. ) ;
#153 = LOCAL_TIME ( 9, 28, 20.00000000000000000, #279 ) ;
#154 = DIRECTION ( 'NONE',  ( -3.491481338843133355E-15, 1.224646799147353207E-16, -1.000000000000000000 ) ) ;
#155 = ORIENTED_EDGE ( 'NONE', *, *, #104, .F. ) ;
#156 = ORIENTED_EDGE ( 'NONE', *, *, #259, .T. ) ;
#157 = DIRECTION ( 'NONE',  ( 0.0000000000000000000, 1.000000000000000000, 0.0000000000000000000 ) ) ;
#158 = CIRCLE ( 'NONE', #211, 0.4999999999999882871 ) ;
#159 = CARTESIAN_POINT ( 'NONE',  ( 1.323271427421547352E-13, -4.641411368768467795E-15, 37.89999999999999147 ) ) ;
#160 = ORIENTED_EDGE ( 'NONE', *, *, #143, .F. ) ;
#161 = CARTESIAN_POINT ( 'NONE',  ( 1.326762908760390170E-13, -4.653657836759941152E-15, 37.99999999999999289 ) ) ;
#162 = VECTOR ( 'NONE', #244, 1000.000000000000000 ) ;
#163 = DIRECTION ( 'NONE',  ( -3.491481338843133355E-15, 1.224646799147353207E-16, -1.000000000000000000 ) ) ;
#164 = DATE_TIME_ROLE ( 'classification_date' ) ;
#165 = ADVANCED_FACE ( 'NONE', ( #234 ), #83, .T. ) ;
#166 = AXIS2_PLACEMENT_3D ( 'NONE', #161, #110, #157 ) ;
#167 = APPROVAL_PERSON_ORGANIZATION ( #277, #193, #191 ) ;
#168 = EDGE_CURVE ( 'NONE', #278, #95, #172, .T. ) ;
#169 = APPROVAL_STATUS ( 'not_yet_approved' ) ;
#170 = CARTESIAN_POINT ( 'NONE',  ( 1.007903845425807560E-15, -3.535250795749649451E-17, 0.2886751345948095904 ) ) ;
#171 = CIRCLE ( 'NONE', #98, 0.4999999999999882871 ) ;
#172 = LINE ( 'NONE', #134, #54 ) ;
#173 = CYLINDRICAL_SURFACE ( 'NONE', #67, 0.4999999999999906741 ) ;
#174 = DESIGN_CONTEXT ( 'detailed design', #268, 'design' ) ;
#175 = CARTESIAN_POINT ( 'NONE',  ( 1.323271427421547352E-13, 0.4999999999999882871, 37.89999999999999147 ) ) ;
#176 = FACE_OUTER_BOUND ( 'NONE', #249, .T. ) ;
#177 = ORIENTED_EDGE ( 'NONE', *, *, #140, .F. ) ;
#178 = EDGE_CURVE ( 'NONE', #246, #113, #27, .T. ) ;
#179 = CARTESIAN_POINT ( 'NONE',  ( 6.672875563374748849E-14, -0.4999999999999882871, 0.2886751345948095349 ) ) ;
#180 = AXIS2_PLACEMENT_3D ( 'NONE', #159, #224, #202 ) ;
#181 = CARTESIAN_POINT ( 'NONE',  ( 0.0000000000000000000, 0.0000000000000000000, 0.0000000000000000000 ) ) ;
#182 = ORIENTED_EDGE ( 'NONE', *, *, #127, .F. ) ;
#183 = APPLICATION_PROTOCOL_DEFINITION ( 'international standard', 'config_control_design', 1994, #123 ) ;
#184 = VERTEX_POINT ( 'NONE', #179 ) ;
#185 = AXIS2_PLACEMENT_3D ( 'NONE', #194, #197, #26 ) ;
#186 = CALENDAR_DATE ( 2021, 2, 9 ) ;
#187 = APPROVAL_STATUS ( 'not_yet_approved' ) ;
#188 = CC_DESIGN_PERSON_AND_ORGANIZATION_ASSIGNMENT ( #19, #275, ( #218 ) ) ;
#189 = CALENDAR_DATE ( 2021, 2, 9 ) ;
#190 = CIRCLE ( 'NONE', #281, 0.3999999999999935829 ) ;
#191 = APPROVAL_ROLE ( '' ) ;
#192 = ADVANCED_FACE ( 'NONE', ( #267 ), #254, .T. ) ;
#193 = APPROVAL ( #169, 'UNSPECIFIED' ) ;
#194 = CARTESIAN_POINT ( 'NONE',  ( 0.0000000000000000000, 0.0000000000000000000, 0.0000000000000000000 ) ) ;
#195 = LINE ( 'NONE', #215, #13 ) ;
#196 = CC_DESIGN_APPROVAL ( #193, ( #218 ) ) ;
#197 = DIRECTION ( 'NONE',  ( -3.491481338843133355E-15, 1.224646799147353207E-16, -1.000000000000000000 ) ) ;
#198 = CARTESIAN_POINT ( 'NONE',  ( 1.069136185383173951E-15, 0.4999999999999882871, 0.2886751345948096459 ) ) ;
#199 = ADVANCED_FACE ( 'NONE', ( #74 ), #1, .T. ) ;
#200 = DIRECTION ( 'NONE',  ( -2.382254525458760857E-15, -0.7071067811865350272, -0.7071067811865598962 ) ) ;
#201 = AXIS2_PLACEMENT_3D ( 'NONE', #52, #163, #209 ) ;
#202 = DIRECTION ( 'NONE',  ( 0.0000000000000000000, 1.000000000000000000, 0.0000000000000000000 ) ) ;
#203 = MANIFOLD_SOLID_BREP ( 'Corps-Déplacer/Copier1[2]', #116 ) ;
#204 = ORIENTED_EDGE ( 'NONE', *, *, #252, .F. ) ;
#205 = CARTESIAN_POINT ( 'NONE',  ( 1.326762908760390170E-13, 0.3999999999999889200, 37.99999999999999289 ) ) ;
#206 = ORIENTED_EDGE ( 'NONE', *, *, #221, .T. ) ;
#207 = EDGE_CURVE ( 'NONE', #3, #184, #130, .T. ) ;
#208 = CARTESIAN_POINT ( 'NONE',  ( 0.0000000000000000000, 0.0000000000000000000, 0.0000000000000000000 ) ) ;
#209 = DIRECTION ( 'NONE',  ( 3.851859888774561915E-31, 1.000000000000000000, 1.084202172485529825E-16 ) ) ;
#210 = DATE_TIME_ROLE ( 'creation_date' ) ;
#211 = AXIS2_PLACEMENT_3D ( 'NONE', #262, #33, #226 ) ;
#212 = DATE_AND_TIME ( #232, #264 ) ;
#213 = DATE_AND_TIME ( #189, #103 ) ;
#214 = DATE_AND_TIME ( #125, #144 ) ;
#215 = CARTESIAN_POINT ( 'NONE',  ( 1.327252767480049262E-13, -0.3999999999999982458, 37.99999999999999289 ) ) ;
#216 = FACE_OUTER_BOUND ( 'NONE', #266, .T. ) ;
#217 = AXIS2_PLACEMENT_3D ( 'NONE', #65, #29, #50 ) ;
#218 = PRODUCT_DEFINITION_FORMATION_WITH_SPECIFIED_SOURCE ( 'ANY', '', #46, .NOT_KNOWN. ) ;
#219 = DIRECTION ( 'NONE',  ( -3.491481338843133355E-15, 1.224646799147353207E-16, -1.000000000000000000 ) ) ;
#220 = CYLINDRICAL_SURFACE ( 'NONE', #185, 0.4999999999999906741 ) ;
#221 = EDGE_CURVE ( 'NONE', #246, #11, #5, .T. ) ;
#222 = CARTESIAN_POINT ( 'NONE',  ( 1.326762908760390170E-13, -4.653657836759941152E-15, 37.99999999999999289 ) ) ;
#223 = DIRECTION ( 'NONE',  ( 3.491481338843133355E-15, -1.224646799147353207E-16, 1.000000000000000000 ) ) ;
#224 = DIRECTION ( 'NONE',  ( -3.491481338843133355E-15, 1.224646799147353207E-16, -1.000000000000000000 ) ) ;
#225 = ORIENTED_EDGE ( 'NONE', *, *, #207, .T. ) ;
#226 = DIRECTION ( 'NONE',  ( 3.851859888774561915E-31, 1.000000000000000000, 1.084202172485529825E-16 ) ) ;
#227 = ORIENTED_EDGE ( 'NONE', *, *, #259, .F. ) ;
#228 = APPROVAL ( #147, 'UNSPECIFIED' ) ;
#229 =( GEOMETRIC_REPRESENTATION_CONTEXT ( 3 ) GLOBAL_UNCERTAINTY_ASSIGNED_CONTEXT ( ( #106 ) ) GLOBAL_UNIT_ASSIGNED_CONTEXT ( ( #137, #94, #261 ) ) REPRESENTATION_CONTEXT ( 'NONE', 'WORKASPACE' ) );
#230 = DATE_AND_TIME ( #186, #153 ) ;
#231 = APPROVAL_DATE_TIME ( #230, #193 ) ;
#232 = CALENDAR_DATE ( 2021, 2, 9 ) ;
#233 = AXIS2_PLACEMENT_3D ( 'NONE', #44, #219, #59 ) ;
#234 = FACE_OUTER_BOUND ( 'NONE', #129, .T. ) ;
#235 = ORIENTED_EDGE ( 'NONE', *, *, #221, .F. ) ;
#236 = LINE ( 'NONE', #64, #21 ) ;
#237 = DIRECTION ( 'NONE',  ( -3.491481338843133355E-15, 1.224646799147353207E-16, -1.000000000000000000 ) ) ;
#238 = ORGANIZATION ( 'UNSPECIFIED', 'UNSPECIFIED', '' ) ;
#239 = ORIENTED_EDGE ( 'NONE', *, *, #140, .T. ) ;
#240 = CARTESIAN_POINT ( 'NONE',  ( 1.326762908760390170E-13, -4.653657836759941152E-15, 37.99999999999999289 ) ) ;
#241 = CC_DESIGN_DATE_AND_TIME_ASSIGNMENT ( #212, #210, ( #56 ) ) ;
#242 = MECHANICAL_CONTEXT ( 'NONE', #123, 'mechanical' ) ;
#243 = PERSON_AND_ORGANIZATION ( #31, #238 ) ;
#244 = DIRECTION ( 'NONE',  ( -2.468850131082307942E-15, 0.7071067811865353603, -0.7071067811865596742 ) ) ;
#245 = CIRCLE ( 'NONE', #126, 0.4999999999999929501 ) ;
#246 = VERTEX_POINT ( 'NONE', #205 ) ;
#247 = PERSON_AND_ORGANIZATION_ROLE ( 'classification_officer' ) ;
#248 = CC_DESIGN_PERSON_AND_ORGANIZATION_ASSIGNMENT ( #253, #124, ( #218 ) ) ;
#249 = EDGE_LOOP ( 'NONE', ( #225, #93 ) ) ;
#250 = COORDINATED_UNIVERSAL_TIME_OFFSET ( 1, 0, .AHEAD. ) ;
#251 = AXIS2_PLACEMENT_3D ( 'NONE', #260, #40, #43 ) ;
#252 = EDGE_CURVE ( 'NONE', #274, #184, #91, .T. ) ;
#253 = PERSON_AND_ORGANIZATION ( #31, #238 ) ;
#254 = CONICAL_SURFACE ( 'NONE', #39, 0.4999999999999882871, 1.047197551196592524 ) ;
#255 = DIRECTION ( 'NONE',  ( -3.491481338843133355E-15, 1.224646799147353207E-16, -1.000000000000000000 ) ) ;
#256 = ORIENTED_EDGE ( 'NONE', *, *, #284, .T. ) ;
#257 = CARTESIAN_POINT ( 'NONE',  ( 1.007903845425807560E-15, -3.535250795749649451E-17, 0.2886751345948095904 ) ) ;
#258 = FACE_OUTER_BOUND ( 'NONE', #35, .T. ) ;
#259 = EDGE_CURVE ( 'NONE', #278, #17, #265, .T. ) ;
#260 = CARTESIAN_POINT ( 'NONE',  ( 1.007903845425805982E-15, -5.007715329123918986E-16, 0.2886751345948091463 ) ) ;
#261 =( NAMED_UNIT ( * ) SI_UNIT ( $, .STERADIAN. ) SOLID_ANGLE_UNIT ( ) );
#262 = CARTESIAN_POINT ( 'NONE',  ( 1.007903845425807560E-15, -3.535250795749649451E-17, 0.2886751345948095904 ) ) ;
#263 = CC_DESIGN_DATE_AND_TIME_ASSIGNMENT ( #14, #164, ( #34 ) ) ;
#264 = LOCAL_TIME ( 9, 28, 20.00000000000000000, #250 ) ;
#265 = LINE ( 'NONE', #120, #47 ) ;
#266 = EDGE_LOOP ( 'NONE', ( #256, #76, #138, #155 ) ) ;
#267 = FACE_OUTER_BOUND ( 'NONE', #66, .T. ) ;
#268 = APPLICATION_CONTEXT ( 'configuration controlled 3d designs of mechanical parts and assemblies' ) ;
#269 = CARTESIAN_POINT ( 'NONE',  ( 1.326762908760390170E-13, 0.3999999999999889200, 37.99999999999999289 ) ) ;
#270 = PRODUCT_DEFINITION_SHAPE ( 'NONE', 'NONE',  #56 ) ;
#271 = EDGE_CURVE ( 'NONE', #17, #95, #158, .T. ) ;
#272 = PERSON_AND_ORGANIZATION ( #31, #238 ) ;
#273 = COORDINATED_UNIVERSAL_TIME_OFFSET ( 1, 0, .AHEAD. ) ;
#274 = VERTEX_POINT ( 'NONE', #117 ) ;
#275 = PERSON_AND_ORGANIZATION_ROLE ( 'design_supplier' ) ;
#276 = CC_DESIGN_APPROVAL ( #8, ( #56 ) ) ;
#277 = PERSON_AND_ORGANIZATION ( #31, #238 ) ;
#278 = VERTEX_POINT ( 'NONE', #181 ) ;
#279 = COORDINATED_UNIVERSAL_TIME_OFFSET ( 1, 0, .AHEAD. ) ;
#280 = DIRECTION ( 'NONE',  ( 3.851859888774561915E-31, 1.000000000000000000, 1.084202172485529825E-16 ) ) ;
#281 = AXIS2_PLACEMENT_3D ( 'NONE', #240, #45, #128 ) ;
#282 = DIRECTION ( 'NONE',  ( 3.491481338843133355E-15, -1.224646799147353207E-16, 1.000000000000000000 ) ) ;
#283 = DIRECTION ( 'NONE',  ( 0.0000000000000000000, 1.000000000000000000, 0.0000000000000000000 ) ) ;
#284 = EDGE_CURVE ( 'NONE', #113, #274, #121, .T. ) ;
#285 = FACE_OUTER_BOUND ( 'NONE', #111, .T. ) ;
#286 = PLANE ( 'NONE',  #251 ) ;
#287 = AXIS2_PLACEMENT_3D ( 'NONE', #257, #61, #280 ) ;
ENDSEC;
END-ISO-10303-21;
