ISO-10303-21;
HEADER;
FILE_DESCRIPTION (( 'STEP AP203' ),
    '1' );
FILE_NAME ('984405.step',
    '2021-12-16T08:57:34',
    ( '' ),
    ( '' ),
    'SwSTEP 2.0',
    'SolidWorks 2019',
    '' );
FILE_SCHEMA (( 'CONFIG_CONTROL_DESIGN' ));
ENDSEC;

DATA;
#1 = CARTESIAN_POINT ( 'NONE',  ( -3.420665156717566863E-32, 1.199807826129486120E-33, -9.797174393178825534E-18 ) ) ;
#2 = DATE_TIME_ROLE ( 'creation_date' ) ;
#3 = AXIS2_PLACEMENT_3D ( 'NONE', #49, #122, #217 ) ;
#4 = PLANE ( 'NONE',  #201 ) ;
#5 = DIRECTION ( 'NONE',  ( 3.491481338843133355E-15, -1.224646799147353207E-16, 1.000000000000000000 ) ) ;
#6 = EDGE_LOOP ( 'NONE', ( #207 ) ) ;
#7 = CIRCLE ( 'NONE', #126, 0.2594999999999994533 ) ;
#8 = DIRECTION ( 'NONE',  ( -3.491481338843133355E-15, 1.224646799147353207E-16, -1.000000000000000000 ) ) ;
#9 = EDGE_CURVE ( 'NONE', #117, #117, #152, .T. ) ;
#10 = APPROVAL_DATE_TIME ( #233, #202 ) ;
#11 = AXIS2_PLACEMENT_3D ( 'NONE', #208, #8, #62 ) ;
#12 = COORDINATED_UNIVERSAL_TIME_OFFSET ( 1, 0, .AHEAD. ) ;
#13 = CC_DESIGN_PERSON_AND_ORGANIZATION_ASSIGNMENT ( #196, #27, ( #140 ) ) ;
#14 = FACE_OUTER_BOUND ( 'NONE', #230, .T. ) ;
#15 = APPROVAL_STATUS ( 'not_yet_approved' ) ;
#16 = APPROVAL ( #15, 'UNSPECIFIED' ) ;
#17 = ADVANCED_FACE ( 'NONE', ( #248, #262 ), #88, .T. ) ;
#18 = FACE_OUTER_BOUND ( 'NONE', #267, .T. ) ;
#19 = FACE_OUTER_BOUND ( 'NONE', #137, .T. ) ;
#20 = DIRECTION ( 'NONE',  ( 0.0000000000000000000, 1.000000000000000000, 0.0000000000000000000 ) ) ;
#21 =( LENGTH_UNIT ( ) NAMED_UNIT ( * ) SI_UNIT ( .MILLI., .METRE. ) );
#22 = AXIS2_PLACEMENT_3D ( 'NONE', #226, #265, #236 ) ;
#23 = DIRECTION ( 'NONE',  ( -3.491481338843133355E-15, 1.224646799147353207E-16, -1.000000000000000000 ) ) ;
#24 = ORIENTED_EDGE ( 'NONE', *, *, #151, .T. ) ;
#25 = CALENDAR_DATE ( 2021, 16, 12 ) ;
#26 = EDGE_LOOP ( 'NONE', ( #110 ) ) ;
#27 = PERSON_AND_ORGANIZATION_ROLE ( 'design_supplier' ) ;
#28 = CARTESIAN_POINT ( 'NONE',  ( 1.047444401652940007E-13, -3.673940397442059178E-15, 30.00000000000000000 ) ) ;
#29 = AXIS2_PLACEMENT_3D ( 'NONE', #1, #264, #85 ) ;
#30 = APPROVAL_DATE_TIME ( #146, #16 ) ;
#31 = PERSON_AND_ORGANIZATION ( #75, #147 ) ;
#32 = DIRECTION ( 'NONE',  ( 3.491481338843133355E-15, -1.224646799147353207E-16, 1.000000000000000000 ) ) ;
#33 = VERTEX_POINT ( 'NONE', #35 ) ;
#34 = LOCAL_TIME ( 9, 57, 34.00000000000000000, #141 ) ;
#35 = CARTESIAN_POINT ( 'NONE',  ( 1.047444401652940007E-13, 0.5999999999999963141, 30.00000000000000000 ) ) ;
#36 = CARTESIAN_POINT ( 'NONE',  ( -6.841330313435133727E-32, 2.399615652258972241E-33, -1.959434878635765107E-17 ) ) ;
#37 = CIRCLE ( 'NONE', #78, 0.7499999999999998890 ) ;
#38 = FACE_OUTER_BOUND ( 'NONE', #90, .T. ) ;
#39 = DIRECTION ( 'NONE',  ( -4.275831445896958607E-31, -1.000000000000000000, -1.224646799147353207E-16 ) ) ;
#40 = DIRECTION ( 'NONE',  ( 3.491481338843133355E-15, -1.224646799147353207E-16, 1.000000000000000000 ) ) ;
#41 = CALENDAR_DATE ( 2021, 16, 12 ) ;
#42 = PERSON_AND_ORGANIZATION ( #75, #147 ) ;
#43 = LOCAL_TIME ( 9, 57, 34.00000000000000000, #239 ) ;
#44 = CIRCLE ( 'NONE', #219, 0.7499999999999971134 ) ;
#45 = CALENDAR_DATE ( 2021, 16, 12 ) ;
#46 = CARTESIAN_POINT ( 'NONE',  ( 1.042207179644675275E-13, -3.655570695454848748E-15, 29.84999999999999787 ) ) ;
#47 = PRODUCT ( '984405', '984405', '', ( #76 ) ) ;
#48 = CALENDAR_DATE ( 2021, 16, 12 ) ;
#49 = CARTESIAN_POINT ( 'NONE',  ( 1.047444401652940007E-13, 4.499279347985518085E-33, 30.00000000000000000 ) ) ;
#50 = AXIS2_PLACEMENT_3D ( 'NONE', #161, #186, #71 ) ;
#51 = CARTESIAN_POINT ( 'NONE',  ( 1.222018468595096674E-14, -4.286263797015736595E-16, 3.500000000000000000 ) ) ;
#52 = EDGE_CURVE ( 'NONE', #274, #274, #37, .T. ) ;
#53 = VERTEX_POINT ( 'NONE', #101 ) ;
#54 = CC_DESIGN_APPROVAL ( #202, ( #61 ) ) ;
#55 = AXIS2_PLACEMENT_3D ( 'NONE', #134, #275, #228 ) ;
#56 =( NAMED_UNIT ( * ) PLANE_ANGLE_UNIT ( ) SI_UNIT ( $, .RADIAN. ) );
#57 = EDGE_LOOP ( 'NONE', ( #160 ) ) ;
#58 = ADVANCED_FACE ( 'NONE', ( #205 ), #4, .T. ) ;
#59 = DIRECTION ( 'NONE',  ( 0.0000000000000000000, 1.000000000000000000, 0.0000000000000000000 ) ) ;
#60 = ORIENTED_EDGE ( 'NONE', *, *, #52, .T. ) ;
#61 = PRODUCT_DEFINITION ( 'UNKNOWN', '', #140, #243 ) ;
#62 = DIRECTION ( 'NONE',  ( 4.275831445896958607E-31, 1.000000000000000000, 1.224646799147353454E-16 ) ) ;
#63 = EDGE_LOOP ( 'NONE', ( #163 ) ) ;
#64 = EDGE_LOOP ( 'NONE', ( #99 ) ) ;
#65 = AXIS2_PLACEMENT_3D ( 'NONE', #159, #253, #170 ) ;
#66 = APPLICATION_PROTOCOL_DEFINITION ( 'international standard', 'config_control_design', 1994, #178 ) ;
#67 = EDGE_CURVE ( 'NONE', #191, #191, #177, .T. ) ;
#68 = APPLICATION_CONTEXT ( 'configuration controlled 3d designs of mechanical parts and assemblies' ) ;
#69 = APPROVAL_STATUS ( 'not_yet_approved' ) ;
#70 = DIRECTION ( 'NONE',  ( 0.0000000000000000000, 0.0000000000000000000, 1.000000000000000000 ) ) ;
#71 = DIRECTION ( 'NONE',  ( 0.0000000000000000000, 1.000000000000000000, 0.0000000000000000000 ) ) ;
#72 = SECURITY_CLASSIFICATION_LEVEL ( 'unclassified' ) ;
#73 = ADVANCED_FACE ( 'NONE', ( #198, #113 ), #277, .T. ) ;
#74 = DIRECTION ( 'NONE',  ( 7.421695354093409934E-31, 1.000000000000000000, 2.089021526947026396E-16 ) ) ;
#75 = PERSON ( 'UNSPECIFIED', 'UNSPECIFIED', 'UNSPECIFIED', ('UNSPECIFIED'), ('UNSPECIFIED'), ('UNSPECIFIED') ) ;
#76 = MECHANICAL_CONTEXT ( 'NONE', #178, 'mechanical' ) ;
#77 = DIRECTION ( 'NONE',  ( -3.491481338843133355E-15, 1.224646799147353207E-16, -1.000000000000000000 ) ) ;
#78 = AXIS2_PLACEMENT_3D ( 'NONE', #46, #244, #108 ) ;
#79 = EDGE_CURVE ( 'NONE', #33, #33, #103, .T. ) ;
#80 = AXIS2_PLACEMENT_3D ( 'NONE', #220, #131, #153 ) ;
#81 = LOCAL_TIME ( 9, 57, 34.00000000000000000, #12 ) ;
#82 = PLANE ( 'NONE',  #181 ) ;
#83 = ADVANCED_FACE ( 'NONE', ( #38, #95 ), #242, .T. ) ;
#84 = CARTESIAN_POINT ( 'NONE',  ( 1.222018468595096674E-14, 1.945938318003752829E-33, 3.500000000000000000 ) ) ;
#85 = DIRECTION ( 'NONE',  ( -4.275831445896958607E-31, -1.000000000000000000, -1.224646799147353207E-16 ) ) ;
#86 = ORIENTED_EDGE ( 'NONE', *, *, #67, .T. ) ;
#87 = AXIS2_PLACEMENT_3D ( 'NONE', #273, #92, #213 ) ;
#88 = CYLINDRICAL_SURFACE ( 'NONE', #65, 0.2594999999999998419 ) ;
#89 = CC_DESIGN_PERSON_AND_ORGANIZATION_ASSIGNMENT ( #93, #234, ( #140 ) ) ;
#90 = EDGE_LOOP ( 'NONE', ( #190 ) ) ;
#91 = EDGE_LOOP ( 'NONE', ( #266 ) ) ;
#92 = DIRECTION ( 'NONE',  ( -3.491481338843133355E-15, 1.224646799147353207E-16, -1.000000000000000000 ) ) ;
#93 = PERSON_AND_ORGANIZATION ( #75, #147 ) ;
#94 = ORIENTED_EDGE ( 'NONE', *, *, #151, .F. ) ;
#95 = FACE_BOUND ( 'NONE', #247, .T. ) ;
#96 = COORDINATED_UNIVERSAL_TIME_OFFSET ( 1, 0, .AHEAD. ) ;
#97 = CC_DESIGN_DATE_AND_TIME_ASSIGNMENT ( #272, #150, ( #185 ) ) ;
#98 = PERSON_AND_ORGANIZATION_ROLE ( 'design_owner' ) ;
#99 = ORIENTED_EDGE ( 'NONE', *, *, #114, .T. ) ;
#100 = CONICAL_SURFACE ( 'NONE', #115, 0.2594999999999994533, 0.2617993877991426910 ) ;
#101 = CARTESIAN_POINT ( 'NONE',  ( 1.296523382149025721E-15, 0.2594999999999993978, 0.3713390553531113469 ) ) ;
#102 = PLANE ( 'NONE',  #3 ) ;
#103 = CIRCLE ( 'NONE', #55, 0.6000000000000000888 ) ;
#104 = CARTESIAN_POINT ( 'NONE',  ( 1.222018468595096674E-14, 0.2594999999999993978, 3.500000000000000000 ) ) ;
#105 = CC_DESIGN_APPROVAL ( #16, ( #185 ) ) ;
#106 = FACE_OUTER_BOUND ( 'NONE', #251, .T. ) ;
#107 = FACE_OUTER_BOUND ( 'NONE', #133, .T. ) ;
#108 = DIRECTION ( 'NONE',  ( 0.0000000000000000000, 1.000000000000000000, 0.0000000000000000000 ) ) ;
#109 = EDGE_CURVE ( 'NONE', #53, #53, #7, .T. ) ;
#110 = ORIENTED_EDGE ( 'NONE', *, *, #67, .F. ) ;
#111 = LOCAL_TIME ( 9, 57, 34.00000000000000000, #96 ) ;
#112 = CLOSED_SHELL ( 'NONE', ( #263, #127, #221, #58 ) ) ;
#113 = FACE_OUTER_BOUND ( 'NONE', #138, .T. ) ;
#114 = EDGE_CURVE ( 'NONE', #149, #149, #229, .T. ) ;
#115 = AXIS2_PLACEMENT_3D ( 'NONE', #200, #32, #125 ) ;
#116 = CARTESIAN_POINT ( 'NONE',  ( 1.042207179644675275E-13, 0.7499999999999962252, 29.84999999999999787 ) ) ;
#117 = VERTEX_POINT ( 'NONE', #214 ) ;
#118 = DATE_AND_TIME ( #45, #34 ) ;
#119 = EDGE_LOOP ( 'NONE', ( #189 ) ) ;
#120 = AXIS2_PLACEMENT_3D ( 'NONE', #36, #145, #179 ) ;
#121 = APPLICATION_PROTOCOL_DEFINITION ( 'international standard', 'config_control_design', 1994, #68 ) ;
#122 = DIRECTION ( 'NONE',  ( -3.491481338843133355E-15, 1.224646799147353207E-16, -1.000000000000000000 ) ) ;
#123 = SHAPE_DEFINITION_REPRESENTATION ( #197, #258 ) ;
#124 = ADVANCED_FACE ( 'NONE', ( #19 ), #102, .F. ) ;
#125 = DIRECTION ( 'NONE',  ( -7.421695354093409934E-31, -1.000000000000000000, -2.089021526947026396E-16 ) ) ;
#126 = AXIS2_PLACEMENT_3D ( 'NONE', #255, #215, #74 ) ;
#127 = ADVANCED_FACE ( 'NONE', ( #180, #14 ), #100, .T. ) ;
#128 = FACE_OUTER_BOUND ( 'NONE', #166, .T. ) ;
#129 =( NAMED_UNIT ( * ) SI_UNIT ( $, .STERADIAN. ) SOLID_ANGLE_UNIT ( ) );
#130 = DIRECTION ( 'NONE',  ( 3.491481338843133355E-15, -1.224646799147353207E-16, 1.000000000000000000 ) ) ;
#131 = DIRECTION ( 'NONE',  ( -3.491481338843133355E-15, 1.224646799147353207E-16, -1.000000000000000000 ) ) ;
#132 = DIRECTION ( 'NONE',  ( -3.491481338843133355E-15, 1.224646799147353207E-16, -1.000000000000000000 ) ) ;
#133 = EDGE_LOOP ( 'NONE', ( #158 ) ) ;
#134 = CARTESIAN_POINT ( 'NONE',  ( 1.047444401652940007E-13, -3.673940397442059178E-15, 30.00000000000000000 ) ) ;
#135 =( GEOMETRIC_REPRESENTATION_CONTEXT ( 3 ) GLOBAL_UNCERTAINTY_ASSIGNED_CONTEXT ( ( #237 ) ) GLOBAL_UNIT_ASSIGNED_CONTEXT ( ( #21, #56, #129 ) ) REPRESENTATION_CONTEXT ( 'NONE', 'WORKASPACE' ) );
#136 = AXIS2_PLACEMENT_3D ( 'NONE', #51, #77, #240 ) ;
#137 = EDGE_LOOP ( 'NONE', ( #139 ) ) ;
#138 = EDGE_LOOP ( 'NONE', ( #60 ) ) ;
#139 = ORIENTED_EDGE ( 'NONE', *, *, #79, .F. ) ;
#140 = PRODUCT_DEFINITION_FORMATION_WITH_SPECIFIED_SOURCE ( 'ANY', '', #47, .NOT_KNOWN. ) ;
#141 = COORDINATED_UNIVERSAL_TIME_OFFSET ( 1, 0, .AHEAD. ) ;
#142 = CC_DESIGN_PERSON_AND_ORGANIZATION_ASSIGNMENT ( #270, #164, ( #61 ) ) ;
#143 = ORIENTED_EDGE ( 'NONE', *, *, #109, .T. ) ;
#144 = CARTESIAN_POINT ( 'NONE',  ( 2.093630881901950803E-14, 0.7499999999999963363, 5.996397169906266811 ) ) ;
#145 = DIRECTION ( 'NONE',  ( -3.491481338843133355E-15, 1.224646799147353207E-16, -1.000000000000000000 ) ) ;
#146 = DATE_AND_TIME ( #48, #43 ) ;
#147 = ORGANIZATION ( 'UNSPECIFIED', 'UNSPECIFIED', '' ) ;
#148 = EDGE_CURVE ( 'NONE', #278, #278, #211, .T. ) ;
#149 = VERTEX_POINT ( 'NONE', #176 ) ;
#150 = DATE_TIME_ROLE ( 'classification_date' ) ;
#151 = EDGE_CURVE ( 'NONE', #281, #281, #280, .T. ) ;
#152 = CIRCLE ( 'NONE', #50, 0.2765370868554654082 ) ;
#153 = DIRECTION ( 'NONE',  ( 4.275831445896958607E-31, 1.000000000000000000, 1.224646799147353207E-16 ) ) ;
#154 = FACE_OUTER_BOUND ( 'NONE', #57, .T. ) ;
#155 = MANIFOLD_SOLID_BREP ( 'Corps-Déplacer/Copier1[1]', #157 ) ;
#156 = CC_DESIGN_DATE_AND_TIME_ASSIGNMENT ( #238, #2, ( #61 ) ) ;
#157 = CLOSED_SHELL ( 'NONE', ( #168, #17, #268, #245, #73, #83, #124 ) ) ;
#158 = ORIENTED_EDGE ( 'NONE', *, *, #9, .T. ) ;
#159 = CARTESIAN_POINT ( 'NONE',  ( 0.0000000000000000000, 0.0000000000000000000, 0.0000000000000000000 ) ) ;
#160 = ORIENTED_EDGE ( 'NONE', *, *, #109, .F. ) ;
#161 = CARTESIAN_POINT ( 'NONE',  ( 1.476690442231316282E-14, -5.179532834075732951E-16, 4.229409522551257794 ) ) ;
#162 = CONICAL_SURFACE ( 'NONE', #283, 0.7499999999999971134, 0.2617993877991428575 ) ;
#163 = ORIENTED_EDGE ( 'NONE', *, *, #148, .F. ) ;
#164 = PERSON_AND_ORGANIZATION_ROLE ( 'creator' ) ;
#165 = CARTESIAN_POINT ( 'NONE',  ( 0.0000000000000000000, 0.0000000000000000000, 0.0000000000000000000 ) ) ;
#166 = EDGE_LOOP ( 'NONE', ( #24 ) ) ;
#167 = APPROVAL_PERSON_ORGANIZATION ( #42, #174, #169 ) ;
#168 = ADVANCED_FACE ( 'NONE', ( #128 ), #82, .F. ) ;
#169 = APPROVAL_ROLE ( '' ) ;
#170 = DIRECTION ( 'NONE',  ( 4.275831445896959482E-31, 1.000000000000000000, 1.224646799147353207E-16 ) ) ;
#171 = PERSON_AND_ORGANIZATION ( #75, #147 ) ;
#172 = CARTESIAN_POINT ( 'NONE',  ( 1.431507348925684360E-14, -5.021051876504147385E-16, 4.099999999999999645 ) ) ;
#173 = PERSON_AND_ORGANIZATION ( #75, #147 ) ;
#174 = APPROVAL ( #69, 'UNSPECIFIED' ) ;
#175 = APPROVAL_PERSON_ORGANIZATION ( #216, #202, #254 ) ;
#176 = CARTESIAN_POINT ( 'NONE',  ( 1.431507348925684360E-14, 0.2594999999999993978, 4.099999999999999645 ) ) ;
#177 = CIRCLE ( 'NONE', #22, 0.2594999999999998419 ) ;
#178 = APPLICATION_CONTEXT ( 'configuration controlled 3d designs of mechanical parts and assemblies' ) ;
#179 = DIRECTION ( 'NONE',  ( 4.275831445896958607E-31, 1.000000000000000000, 1.224646799147353207E-16 ) ) ;
#180 = FACE_BOUND ( 'NONE', #63, .T. ) ;
#181 = AXIS2_PLACEMENT_3D ( 'NONE', #84, #130, #182 ) ;
#182 = DIRECTION ( 'NONE',  ( -4.275831445896958607E-31, -1.000000000000000000, -1.224646799147353207E-16 ) ) ;
#183 = CYLINDRICAL_SURFACE ( 'NONE', #80, 0.2594999999999996199 ) ;
#184 = FACE_BOUND ( 'NONE', #6, .T. ) ;
#185 = SECURITY_CLASSIFICATION ( '', '', #72 ) ;
#186 = DIRECTION ( 'NONE',  ( -3.491481338843133355E-15, 1.224646799147353207E-16, -1.000000000000000000 ) ) ;
#187 = AXIS2_PLACEMENT_3D ( 'NONE', #172, #132, #224 ) ;
#188 = CARTESIAN_POINT ( 'NONE',  ( 1.222018468595096674E-14, 1.945938318003752829E-33, 3.500000000000000000 ) ) ;
#189 = ORIENTED_EDGE ( 'NONE', *, *, #199, .T. ) ;
#190 = ORIENTED_EDGE ( 'NONE', *, *, #52, .F. ) ;
#191 = VERTEX_POINT ( 'NONE', #269 ) ;
#192 = CALENDAR_DATE ( 2021, 16, 12 ) ;
#193 = COORDINATED_UNIVERSAL_TIME_OFFSET ( 1, 0, .AHEAD. ) ;
#194 = EDGE_LOOP ( 'NONE', ( #94 ) ) ;
#195 = ORIENTED_EDGE ( 'NONE', *, *, #148, .T. ) ;
#196 = PERSON_AND_ORGANIZATION ( #75, #147 ) ;
#197 = PRODUCT_DEFINITION_SHAPE ( 'NONE', 'NONE',  #61 ) ;
#198 = FACE_OUTER_BOUND ( 'NONE', #91, .T. ) ;
#199 = EDGE_CURVE ( 'NONE', #282, #282, #44, .T. ) ;
#200 = CARTESIAN_POINT ( 'NONE',  ( 1.296523382149025524E-15, -4.547591855365895767E-17, 0.3713390553531112914 ) ) ;
#201 = AXIS2_PLACEMENT_3D ( 'NONE', #188, #40, #39 ) ;
#202 = APPROVAL ( #276, 'UNSPECIFIED' ) ;
#203 = PRODUCT_RELATED_PRODUCT_CATEGORY ( 'detail', '', ( #47 ) ) ;
#204 = PLANE ( 'NONE',  #29 ) ;
#205 = FACE_OUTER_BOUND ( 'NONE', #26, .T. ) ;
#206 = TOROIDAL_SURFACE ( 'NONE', #87, 0.7594999999999998419, 0.4999999999999997780 ) ;
#207 = ORIENTED_EDGE ( 'NONE', *, *, #9, .F. ) ;
#208 = CARTESIAN_POINT ( 'NONE',  ( 0.0000000000000000000, 0.0000000000000000000, 0.0000000000000000000 ) ) ;
#209 = APPROVAL_DATE_TIME ( #118, #174 ) ;
#210 = CC_DESIGN_SECURITY_CLASSIFICATION ( #185, ( #140 ) ) ;
#211 = CIRCLE ( 'NONE', #120, 0.1600000000000000033 ) ;
#212 = CC_DESIGN_PERSON_AND_ORGANIZATION_ASSIGNMENT ( #31, #98, ( #47 ) ) ;
#213 = DIRECTION ( 'NONE',  ( 4.275831445896958607E-31, 1.000000000000000000, 1.224646799147353207E-16 ) ) ;
#214 = CARTESIAN_POINT ( 'NONE',  ( 1.476690442231316282E-14, 0.2765370868554648531, 4.229409522551257794 ) ) ;
#215 = DIRECTION ( 'NONE',  ( -3.491481338843133355E-15, 1.224646799147353207E-16, -1.000000000000000000 ) ) ;
#216 = PERSON_AND_ORGANIZATION ( #75, #147 ) ;
#217 = DIRECTION ( 'NONE',  ( 4.275831445896958607E-31, 1.000000000000000000, 1.224646799147353207E-16 ) ) ;
#218 = CARTESIAN_POINT ( 'NONE',  ( 0.0000000000000000000, 0.1600000000000000033, 0.0000000000000000000 ) ) ;
#219 = AXIS2_PLACEMENT_3D ( 'NONE', #241, #259, #59 ) ;
#220 = CARTESIAN_POINT ( 'NONE',  ( 0.0000000000000000000, 0.0000000000000000000, 0.0000000000000000000 ) ) ;
#221 = ADVANCED_FACE ( 'NONE', ( #154, #18 ), #183, .T. ) ;
#222 = AXIS2_PLACEMENT_3D ( 'NONE', #165, #70, #235 ) ;
#223 = DIRECTION ( 'NONE',  ( 0.0000000000000000000, -1.000000000000000000, 0.0000000000000000000 ) ) ;
#224 = DIRECTION ( 'NONE',  ( 0.0000000000000000000, 1.000000000000000000, 0.0000000000000000000 ) ) ;
#225 = CARTESIAN_POINT ( 'NONE',  ( 2.093630881901950803E-14, -7.343468600541956953E-16, 5.996397169906266811 ) ) ;
#226 = CARTESIAN_POINT ( 'NONE',  ( 1.222018468595096674E-14, -4.286263797015736595E-16, 3.500000000000000000 ) ) ;
#227 = LOCAL_TIME ( 9, 57, 34.00000000000000000, #193 ) ;
#228 = DIRECTION ( 'NONE',  ( 0.0000000000000000000, 1.000000000000000000, 0.0000000000000000000 ) ) ;
#229 = CIRCLE ( 'NONE', #187, 0.2594999999999998974 ) ;
#230 = EDGE_LOOP ( 'NONE', ( #143 ) ) ;
#231 = ORIENTED_EDGE ( 'NONE', *, *, #114, .F. ) ;
#232 = EDGE_LOOP ( 'NONE', ( #231 ) ) ;
#233 = DATE_AND_TIME ( #25, #111 ) ;
#234 = PERSON_AND_ORGANIZATION_ROLE ( 'creator' ) ;
#235 = DIRECTION ( 'NONE',  ( 1.000000000000000000, 0.0000000000000000000, 0.0000000000000000000 ) ) ;
#236 = DIRECTION ( 'NONE',  ( 0.0000000000000000000, 1.000000000000000000, 0.0000000000000000000 ) ) ;
#237 = UNCERTAINTY_MEASURE_WITH_UNIT (LENGTH_MEASURE( 1.000000000000000082E-05 ), #21, 'distance_accuracy_value', 'NONE');
#238 = DATE_AND_TIME ( #41, #227 ) ;
#239 = COORDINATED_UNIVERSAL_TIME_OFFSET ( 1, 0, .AHEAD. ) ;
#240 = DIRECTION ( 'NONE',  ( 0.0000000000000000000, 1.000000000000000000, 0.0000000000000000000 ) ) ;
#241 = CARTESIAN_POINT ( 'NONE',  ( 2.093630881901950803E-14, -7.343468600541956953E-16, 5.996397169906266811 ) ) ;
#242 = CONICAL_SURFACE ( 'NONE', #271, 0.6000000000000000888, 0.7853981633974450594 ) ;
#243 = DESIGN_CONTEXT ( 'detailed design', #68, 'design' ) ;
#244 = DIRECTION ( 'NONE',  ( -3.491481338843133355E-15, 1.224646799147353207E-16, -1.000000000000000000 ) ) ;
#245 = ADVANCED_FACE ( 'NONE', ( #184, #261 ), #162, .T. ) ;
#246 = ORIENTED_EDGE ( 'NONE', *, *, #79, .T. ) ;
#247 = EDGE_LOOP ( 'NONE', ( #246 ) ) ;
#248 = FACE_OUTER_BOUND ( 'NONE', #194, .T. ) ;
#249 = CC_DESIGN_PERSON_AND_ORGANIZATION_ASSIGNMENT ( #171, #250, ( #185 ) ) ;
#250 = PERSON_AND_ORGANIZATION_ROLE ( 'classification_officer' ) ;
#251 = EDGE_LOOP ( 'NONE', ( #195 ) ) ;
#252 = MANIFOLD_SOLID_BREP ( 'Corps-Déplacer/Copier1[2]', #112 ) ;
#253 = DIRECTION ( 'NONE',  ( -3.491481338843133355E-15, 1.224646799147353207E-16, -1.000000000000000000 ) ) ;
#254 = APPROVAL_ROLE ( '' ) ;
#255 = CARTESIAN_POINT ( 'NONE',  ( 1.296523382149025524E-15, -4.547591855365895767E-17, 0.3713390553531112914 ) ) ;
#256 = APPROVAL_ROLE ( '' ) ;
#257 = CC_DESIGN_APPROVAL ( #174, ( #140 ) ) ;
#258 = ADVANCED_BREP_SHAPE_REPRESENTATION ( '984405', ( #155, #252, #222 ), #135 ) ;
#259 = DIRECTION ( 'NONE',  ( -3.491481338843133355E-15, 1.224646799147353207E-16, -1.000000000000000000 ) ) ;
#260 = FACE_OUTER_BOUND ( 'NONE', #232, .T. ) ;
#261 = FACE_OUTER_BOUND ( 'NONE', #119, .T. ) ;
#262 = FACE_OUTER_BOUND ( 'NONE', #64, .T. ) ;
#263 = ADVANCED_FACE ( 'NONE', ( #106 ), #204, .F. ) ;
#264 = DIRECTION ( 'NONE',  ( 3.491481338843133355E-15, -1.224646799147353207E-16, 1.000000000000000000 ) ) ;
#265 = DIRECTION ( 'NONE',  ( -3.491481338843133355E-15, 1.224646799147353207E-16, -1.000000000000000000 ) ) ;
#266 = ORIENTED_EDGE ( 'NONE', *, *, #199, .F. ) ;
#267 = EDGE_LOOP ( 'NONE', ( #86 ) ) ;
#268 = ADVANCED_FACE ( 'NONE', ( #260, #107 ), #206, .F. ) ;
#269 = CARTESIAN_POINT ( 'NONE',  ( 1.222018468595096674E-14, 0.2594999999999993978, 3.500000000000000000 ) ) ;
#270 = PERSON_AND_ORGANIZATION ( #75, #147 ) ;
#271 = AXIS2_PLACEMENT_3D ( 'NONE', #28, #23, #20 ) ;
#272 = DATE_AND_TIME ( #192, #81 ) ;
#273 = CARTESIAN_POINT ( 'NONE',  ( 1.431507348925684360E-14, -5.421010862427522170E-16, 4.099999999999999645 ) ) ;
#274 = VERTEX_POINT ( 'NONE', #116 ) ;
#275 = DIRECTION ( 'NONE',  ( -3.491481338843133355E-15, 1.224646799147353207E-16, -1.000000000000000000 ) ) ;
#276 = APPROVAL_STATUS ( 'not_yet_approved' ) ;
#277 = CYLINDRICAL_SURFACE ( 'NONE', #11, 0.7499999999999984457 ) ;
#278 = VERTEX_POINT ( 'NONE', #218 ) ;
#279 = APPROVAL_PERSON_ORGANIZATION ( #173, #16, #256 ) ;
#280 = CIRCLE ( 'NONE', #136, 0.2594999999999998419 ) ;
#281 = VERTEX_POINT ( 'NONE', #104 ) ;
#282 = VERTEX_POINT ( 'NONE', #144 ) ;
#283 = AXIS2_PLACEMENT_3D ( 'NONE', #225, #5, #223 ) ;
ENDSEC;
END-ISO-10303-21;
