ISO-10303-21;
HEADER;
FILE_DESCRIPTION (( 'STEP AP203' ),
    '1' );
FILE_NAME ('984319.step',
    '2023-09-27T05:46:15',
    ( '' ),
    ( '' ),
    'SwSTEP 2.0',
    'SolidWorks 2022',
    '' );
FILE_SCHEMA (( 'CONFIG_CONTROL_DESIGN' ));
ENDSEC;

DATA;
#1 = CARTESIAN_POINT ( 'NONE',  ( 1.326762908760390423E-13, 1.199999999999993072, 38.00000000000000000 ) ) ;
#2 = CYLINDRICAL_SURFACE ( 'NONE', #275, 1.499999999999998002 ) ;
#3 = LOCAL_TIME ( 7, 46, 15.00000000000000000, #261 ) ;
#4 = CALENDAR_DATE ( 2023, 27, 9 ) ;
#5 = EDGE_CURVE ( 'NONE', #106, #106, #266, .T. ) ;
#6 = EDGE_LOOP ( 'NONE', ( #91 ) ) ;
#7 = DIRECTION ( 'NONE',  ( -1.000000000000000000, 0.000000000000000000, 4.625929269271497155E-15 ) ) ;
#8 = DATE_AND_TIME ( #4, #149 ) ;
#9 = EDGE_LOOP ( 'NONE', ( #237 ) ) ;
#10 = DIRECTION ( 'NONE',  ( 1.000000000000000000, 0.000000000000000000, -3.492381997910038260E-15 ) ) ;
#11 = PRODUCT_DEFINITION_FORMATION_WITH_SPECIFIED_SOURCE ( 'ANY', '', #139, .NOT_KNOWN. ) ;
#12 = DIRECTION ( 'NONE',  ( 1.000000000000000000, 0.000000000000000000, 0.000000000000000000 ) ) ;
#13 = VERTEX_POINT ( 'NONE', #202 ) ;
#14 = FACE_OUTER_BOUND ( 'NONE', #127, .T. ) ;
#15 = AXIS2_PLACEMENT_3D ( 'NONE', #244, #73, #10 ) ;
#16 = AXIS2_PLACEMENT_3D ( 'NONE', #158, #32, #34 ) ;
#17 = PRODUCT_DEFINITION_SHAPE ( 'NONE', 'NONE',  #137 ) ;
#18 = DIRECTION ( 'NONE',  ( 3.491481338843133355E-15, -0.000000000000000000, 1.000000000000000000 ) ) ;
#19 = CARTESIAN_POINT ( 'NONE',  ( 6.284666409917650295E-15, 0.000000000000000000, 1.800000000000002931 ) ) ;
#20 = FACE_OUTER_BOUND ( 'NONE', #219, .T. ) ;
#21 = APPLICATION_CONTEXT ( 'configuration controlled 3d designs of mechanical parts and assemblies' ) ;
#22 = ADVANCED_FACE ( 'NONE', ( #26, #195 ), #95, .T. ) ;
#23 = AXIS2_PLACEMENT_3D ( 'NONE', #262, #264, #67 ) ;
#24 = AXIS2_PLACEMENT_3D ( 'NONE', #119, #79, #126 ) ;
#25 = ORIENTED_EDGE ( 'NONE', *, *, #62, .T. ) ;
#26 = FACE_BOUND ( 'NONE', #109, .T. ) ;
#27 = CIRCLE ( 'NONE', #248, 1.500000000000000000 ) ;
#28 = APPROVAL_STATUS ( 'not_yet_approved' ) ;
#29 = PRODUCT_RELATED_PRODUCT_CATEGORY ( 'detail', '', ( #139 ) ) ;
#30 = CALENDAR_DATE ( 2023, 27, 9 ) ;
#31 = ORIENTED_EDGE ( 'NONE', *, *, #206, .F. ) ;
#32 = DIRECTION ( 'NONE',  ( 3.491481338843133355E-15, -0.000000000000000000, 1.000000000000000000 ) ) ;
#33 = PERSON_AND_ORGANIZATION_ROLE ( 'classification_officer' ) ;
#34 = DIRECTION ( 'NONE',  ( 1.000000000000000000, 0.000000000000000000, -4.587415197775708050E-15 ) ) ;
#35 = CONICAL_SURFACE ( 'NONE', #16, 0.1890741737109297715, 0.2617993877991428575 ) ;
#36 = DIRECTION ( 'NONE',  ( 1.000000000000000000, 0.000000000000000000, 0.000000000000000000 ) ) ;
#37 = CONICAL_SURFACE ( 'NONE', #24, 0.2600000000000000089, 1.047197551196619392 ) ;
#38 = DIRECTION ( 'NONE',  ( 3.491481338843133355E-15, -0.000000000000000000, 1.000000000000000000 ) ) ;
#39 = AXIS2_PLACEMENT_3D ( 'NONE', #174, #197, #7 ) ;
#40 = ADVANCED_BREP_SHAPE_REPRESENTATION ( '984319', ( #57, #145 ), #211 ) ;
#41 =( NAMED_UNIT ( * ) PLANE_ANGLE_UNIT ( ) SI_UNIT ( $, .RADIAN. ) );
#42 = APPROVAL ( #199, 'UNSPECIFIED' ) ;
#43 = FACE_BOUND ( 'NONE', #222, .T. ) ;
#44 = CC_DESIGN_APPROVAL ( #42, ( #137 ) ) ;
#45 = CALENDAR_DATE ( 2023, 27, 9 ) ;
#46 = DATE_TIME_ROLE ( 'classification_date' ) ;
#47 = EDGE_LOOP ( 'NONE', ( #177 ) ) ;
#48 = PERSON_AND_ORGANIZATION ( #256, #71 ) ;
#49 = DIRECTION ( 'NONE',  ( 3.491481338843133355E-15, -0.000000000000000000, 1.000000000000000000 ) ) ;
#50 = CIRCLE ( 'NONE', #96, 0.1890741737109297715 ) ;
#51 = PERSON_AND_ORGANIZATION_ROLE ( 'design_supplier' ) ;
#52 = ORIENTED_EDGE ( 'NONE', *, *, #133, .T. ) ;
#53 = DATE_AND_TIME ( #131, #3 ) ;
#54 = ORIENTED_EDGE ( 'NONE', *, *, #59, .F. ) ;
#55 = APPROVAL_PERSON_ORGANIZATION ( #193, #42, #147 ) ;
#56 = FACE_BOUND ( 'NONE', #234, .T. ) ;
#57 = MANIFOLD_SOLID_BREP ( 'Corps-Déplacer/Copier1', #207 ) ;
#58 = DIRECTION ( 'NONE',  ( 1.000000000000000000, 0.000000000000000000, -4.587415197775708050E-15 ) ) ;
#59 = EDGE_CURVE ( 'NONE', #194, #194, #142, .T. ) ;
#60 = AXIS2_PLACEMENT_3D ( 'NONE', #225, #18, #99 ) ;
#61 =( NAMED_UNIT ( * ) SI_UNIT ( $, .STERADIAN. ) SOLID_ANGLE_UNIT ( ) );
#62 = EDGE_CURVE ( 'NONE', #90, #90, #247, .T. ) ;
#63 = AXIS2_PLACEMENT_3D ( 'NONE', #228, #38, #160 ) ;
#64 = DIRECTION ( 'NONE',  ( 1.000000000000000000, 0.000000000000000000, -3.492381997910038260E-15 ) ) ;
#65 = EDGE_LOOP ( 'NONE', ( #54 ) ) ;
#66 = PERSON_AND_ORGANIZATION_ROLE ( 'design_owner' ) ;
#67 = DIRECTION ( 'NONE',  ( 1.000000000000000000, 0.000000000000000000, -4.625929269271497155E-15 ) ) ;
#68 = PERSON_AND_ORGANIZATION ( #256, #71 ) ;
#69 = CARTESIAN_POINT ( 'NONE',  ( 1.500000000000127676, 0.000000000000000000, 37.69999999999998863 ) ) ;
#70 = DIRECTION ( 'NONE',  ( 1.000000000000000000, 0.000000000000000000, -5.782411586589390376E-15 ) ) ;
#71 = ORGANIZATION ( 'UNSPECIFIED', 'UNSPECIFIED', '' ) ;
#72 = VERTEX_POINT ( 'NONE', #204 ) ;
#73 = DIRECTION ( 'NONE',  ( 3.491481338843133355E-15, -0.000000000000000000, 1.000000000000000000 ) ) ;
#74 = EDGE_LOOP ( 'NONE', ( #130 ) ) ;
#75 = CYLINDRICAL_SURFACE ( 'NONE', #180, 0.1549999999999999156 ) ;
#76 = DIRECTION ( 'NONE',  ( 3.491481338843133355E-15, -0.000000000000000000, 1.000000000000000000 ) ) ;
#77 = ADVANCED_FACE ( 'NONE', ( #132, #176 ), #151, .T. ) ;
#78 = FACE_OUTER_BOUND ( 'NONE', #218, .T. ) ;
#79 = DIRECTION ( 'NONE',  ( -3.491481338843133355E-15, 0.000000000000000000, -1.000000000000000000 ) ) ;
#80 = SECURITY_CLASSIFICATION ( '', '', #129 ) ;
#81 = CIRCLE ( 'NONE', #231, 0.2600000000000000089 ) ;
#82 = CARTESIAN_POINT ( 'NONE',  ( 0.000000000000000000, 0.000000000000000000, 0.000000000000000000 ) ) ;
#83 = FACE_OUTER_BOUND ( 'NONE', #47, .T. ) ;
#84 = CC_DESIGN_PERSON_AND_ORGANIZATION_ASSIGNMENT ( #263, #51, ( #11 ) ) ;
#85 = EDGE_LOOP ( 'NONE', ( #88 ) ) ;
#86 = APPROVAL_STATUS ( 'not_yet_approved' ) ;
#87 = DATE_TIME_ROLE ( 'creation_date' ) ;
#88 = ORIENTED_EDGE ( 'NONE', *, *, #133, .F. ) ;
#89 = APPROVAL_DATE_TIME ( #8, #98 ) ;
#90 = VERTEX_POINT ( 'NONE', #267 ) ;
#91 = ORIENTED_EDGE ( 'NONE', *, *, #59, .T. ) ;
#92 = FACE_OUTER_BOUND ( 'NONE', #9, .T. ) ;
#93 = FACE_OUTER_BOUND ( 'NONE', #85, .T. ) ;
#94 = CARTESIAN_POINT ( 'NONE',  ( 4.742370512703037309E-16, 0.000000000000000000, 0.1358268898631539989 ) ) ;
#95 = CONICAL_SURFACE ( 'NONE', #39, 1.499999999999996225, 0.7853981633974504994 ) ;
#96 = AXIS2_PLACEMENT_3D ( 'NONE', #179, #76, #58 ) ;
#97 = UNCERTAINTY_MEASURE_WITH_UNIT (LENGTH_MEASURE( 1.000000000000000082E-05 ), #254, 'distance_accuracy_value', 'NONE');
#98 = APPROVAL ( #86, 'UNSPECIFIED' ) ;
#99 = DIRECTION ( 'NONE',  ( 1.000000000000000000, 0.000000000000000000, -3.491481338843132961E-15 ) ) ;
#100 = AXIS2_PLACEMENT_3D ( 'NONE', #167, #101, #122 ) ;
#101 = DIRECTION ( 'NONE',  ( 3.491481338843133355E-15, -0.000000000000000000, 1.000000000000000000 ) ) ;
#102 = ADVANCED_FACE ( 'NONE', ( #92 ), #181, .F. ) ;
#103 = APPROVAL_ROLE ( '' ) ;
#104 = ORIENTED_EDGE ( 'NONE', *, *, #190, .F. ) ;
#105 = PERSON_AND_ORGANIZATION ( #256, #71 ) ;
#106 = VERTEX_POINT ( 'NONE', #217 ) ;
#107 = AXIS2_PLACEMENT_3D ( 'NONE', #242, #201, #12 ) ;
#108 = CIRCLE ( 'NONE', #60, 0.1550000000000000544 ) ;
#109 = EDGE_LOOP ( 'NONE', ( #212 ) ) ;
#110 = EDGE_CURVE ( 'NONE', #72, #72, #108, .T. ) ;
#111 = EDGE_LOOP ( 'NONE', ( #270 ) ) ;
#112 = APPROVAL_DATE_TIME ( #114, #42 ) ;
#113 = DIRECTION ( 'NONE',  ( 3.491481338843133355E-15, -0.000000000000000000, 1.000000000000000000 ) ) ;
#114 = DATE_AND_TIME ( #191, #200 ) ;
#115 = EDGE_LOOP ( 'NONE', ( #150 ) ) ;
#116 = CC_DESIGN_SECURITY_CLASSIFICATION ( #80, ( #11 ) ) ;
#117 = CC_DESIGN_PERSON_AND_ORGANIZATION_ASSIGNMENT ( #48, #33, ( #80 ) ) ;
#118 = CARTESIAN_POINT ( 'NONE',  ( 0.2600000000000002864, 0.000000000000000000, 0.07520511159824543046 ) ) ;
#119 = CARTESIAN_POINT ( 'NONE',  ( 2.625772437308923810E-16, 0.000000000000000000, 0.07520511159824633252 ) ) ;
#120 = CARTESIAN_POINT ( 'NONE',  ( 2.427019748253096820E-14, 0.000000000000000000, 6.951260833767666902 ) ) ;
#121 = ADVANCED_FACE ( 'NONE', ( #184, #78 ), #175, .F. ) ;
#122 = DIRECTION ( 'NONE',  ( 1.000000000000000000, 0.000000000000000000, -3.491481338843132961E-15 ) ) ;
#123 = CIRCLE ( 'NONE', #251, 0.1550000000000000544 ) ;
#124 = APPROVAL_DATE_TIME ( #221, #125 ) ;
#125 = APPROVAL ( #28, 'UNSPECIFIED' ) ;
#126 = DIRECTION ( 'NONE',  ( -1.000000000000000000, 0.000000000000000000, 3.492381997910038260E-15 ) ) ;
#127 = EDGE_LOOP ( 'NONE', ( #259 ) ) ;
#128 = COORDINATED_UNIVERSAL_TIME_OFFSET ( 1, 0, .AHEAD. ) ;
#129 = SECURITY_CLASSIFICATION_LEVEL ( 'unclassified' ) ;
#130 = ORIENTED_EDGE ( 'NONE', *, *, #152, .T. ) ;
#131 = CALENDAR_DATE ( 2023, 27, 9 ) ;
#132 = FACE_OUTER_BOUND ( 'NONE', #171, .T. ) ;
#133 = EDGE_CURVE ( 'NONE', #227, #227, #273, .T. ) ;
#134 = VERTEX_POINT ( 'NONE', #272 ) ;
#135 = FACE_OUTER_BOUND ( 'NONE', #74, .T. ) ;
#136 = ADVANCED_FACE ( 'NONE', ( #20 ), #187, .F. ) ;
#137 = PRODUCT_DEFINITION ( 'UNKNOWN', '', #11, #203 ) ;
#138 = AXIS2_PLACEMENT_3D ( 'NONE', #1, #164, #250 ) ;
#139 = PRODUCT ( '984319', '984319', '', ( #140 ) ) ;
#140 = MECHANICAL_CONTEXT ( 'NONE', #173, 'mechanical' ) ;
#141 = APPLICATION_PROTOCOL_DEFINITION ( 'international standard', 'config_control_design', 1994, #173 ) ;
#142 = CIRCLE ( 'NONE', #23, 1.499999999999996225 ) ;
#143 = DIRECTION ( 'NONE',  ( 3.491481338843133355E-15, -0.000000000000000000, 1.000000000000000000 ) ) ;
#144 = APPLICATION_PROTOCOL_DEFINITION ( 'international standard', 'config_control_design', 1994, #21 ) ;
#145 = AXIS2_PLACEMENT_3D ( 'NONE', #82, #210, #163 ) ;
#146 = ORIENTED_EDGE ( 'NONE', *, *, #152, .F. ) ;
#147 = APPROVAL_ROLE ( '' ) ;
#148 = CARTESIAN_POINT ( 'NONE',  ( 1.326762908760390423E-13, 0.000000000000000000, 38.00000000000000000 ) ) ;
#149 = LOCAL_TIME ( 7, 46, 15.00000000000000000, #196 ) ;
#150 = ORIENTED_EDGE ( 'NONE', *, *, #206, .T. ) ;
#151 = CYLINDRICAL_SURFACE ( 'NONE', #107, 0.2600000000000000089 ) ;
#152 = EDGE_CURVE ( 'NONE', #162, #162, #81, .T. ) ;
#153 = EDGE_LOOP ( 'NONE', ( #214 ) ) ;
#154 = CARTESIAN_POINT ( 'NONE',  ( 1.326762908760390423E-13, 0.000000000000000000, 38.00000000000000000 ) ) ;
#155 = VERTEX_POINT ( 'NONE', #246 ) ;
#156 = CC_DESIGN_APPROVAL ( #125, ( #80 ) ) ;
#157 = DIRECTION ( 'NONE',  ( 1.000000000000000000, 0.000000000000000000, -3.491481338843133355E-15 ) ) ;
#158 = CARTESIAN_POINT ( 'NONE',  ( 7.188328276030272174E-15, 0.000000000000000000, 2.058819045102515233 ) ) ;
#159 = CARTESIAN_POINT ( 'NONE',  ( 0.000000000000000000, 0.000000000000000000, 0.000000000000000000 ) ) ;
#160 = DIRECTION ( 'NONE',  ( 1.000000000000000000, 0.000000000000000000, -3.491481338843132961E-15 ) ) ;
#161 = APPROVAL_PERSON_ORGANIZATION ( #105, #98, #213 ) ;
#162 = VERTEX_POINT ( 'NONE', #118 ) ;
#163 = DIRECTION ( 'NONE',  ( 1.000000000000000000, 0.000000000000000000, 0.000000000000000000 ) ) ;
#164 = DIRECTION ( 'NONE',  ( -3.491481338843133355E-15, 0.000000000000000000, -1.000000000000000000 ) ) ;
#165 = CC_DESIGN_DATE_AND_TIME_ASSIGNMENT ( #215, #46, ( #80 ) ) ;
#166 = APPROVAL_PERSON_ORGANIZATION ( #233, #125, #103 ) ;
#167 = CARTESIAN_POINT ( 'NONE',  ( 0.000000000000000000, 0.000000000000000000, 0.000000000000000000 ) ) ;
#168 = ADVANCED_FACE ( 'NONE', ( #83, #43 ), #216, .T. ) ;
#169 = EDGE_LOOP ( 'NONE', ( #192 ) ) ;
#170 = SHAPE_DEFINITION_REPRESENTATION ( #17, #40 ) ;
#171 = EDGE_LOOP ( 'NONE', ( #146 ) ) ;
#172 = PERSON_AND_ORGANIZATION_ROLE ( 'creator' ) ;
#173 = APPLICATION_CONTEXT ( 'configuration controlled 3d designs of mechanical parts and assemblies' ) ;
#174 = CARTESIAN_POINT ( 'NONE',  ( 1.316288464743861212E-13, 0.000000000000000000, 37.69999999999999574 ) ) ;
#175 = TOROIDAL_SURFACE ( 'NONE', #63, 1.154999999999999805, 1.000000000000000000 ) ;
#176 = FACE_OUTER_BOUND ( 'NONE', #153, .T. ) ;
#177 = ORIENTED_EDGE ( 'NONE', *, *, #5, .F. ) ;
#178 = CC_DESIGN_PERSON_AND_ORGANIZATION_ASSIGNMENT ( #229, #66, ( #139 ) ) ;
#179 = CARTESIAN_POINT ( 'NONE',  ( 7.188328276030272174E-15, 0.000000000000000000, 2.058819045102515233 ) ) ;
#180 = AXIS2_PLACEMENT_3D ( 'NONE', #154, #245, #36 ) ;
#181 = PLANE ( 'NONE',  #230 ) ;
#182 = DIRECTION ( 'NONE',  ( 3.491481338843133355E-15, -0.000000000000000000, 1.000000000000000000 ) ) ;
#183 = CC_DESIGN_PERSON_AND_ORGANIZATION_ASSIGNMENT ( #68, #172, ( #11 ) ) ;
#184 = FACE_OUTER_BOUND ( 'NONE', #111, .T. ) ;
#185 = DIRECTION ( 'NONE',  ( 3.491481338843133355E-15, -0.000000000000000000, 1.000000000000000000 ) ) ;
#186 = ADVANCED_FACE ( 'NONE', ( #209, #188 ), #2, .T. ) ;
#187 = PLANE ( 'NONE',  #138 ) ;
#188 = FACE_OUTER_BOUND ( 'NONE', #115, .T. ) ;
#189 = CC_DESIGN_APPROVAL ( #98, ( #11 ) ) ;
#190 = EDGE_CURVE ( 'NONE', #13, #13, #123, .T. ) ;
#191 = CALENDAR_DATE ( 2023, 27, 9 ) ;
#192 = ORIENTED_EDGE ( 'NONE', *, *, #253, .T. ) ;
#193 = PERSON_AND_ORGANIZATION ( #256, #71 ) ;
#194 = VERTEX_POINT ( 'NONE', #69 ) ;
#195 = FACE_OUTER_BOUND ( 'NONE', #6, .T. ) ;
#196 = COORDINATED_UNIVERSAL_TIME_OFFSET ( 1, 0, .AHEAD. ) ;
#197 = DIRECTION ( 'NONE',  ( -3.491481338843133355E-15, 0.000000000000000000, -1.000000000000000000 ) ) ;
#198 = COORDINATED_UNIVERSAL_TIME_OFFSET ( 1, 0, .AHEAD. ) ;
#199 = APPROVAL_STATUS ( 'not_yet_approved' ) ;
#200 = LOCAL_TIME ( 7, 46, 15.00000000000000000, #257 ) ;
#201 = DIRECTION ( 'NONE',  ( 3.491481338843133355E-15, -0.000000000000000000, 1.000000000000000000 ) ) ;
#202 = CARTESIAN_POINT ( 'NONE',  ( 0.1550000000000005262, 0.000000000000000000, 0.1358268898631534438 ) ) ;
#203 = DESIGN_CONTEXT ( 'detailed design', #21, 'design' ) ;
#204 = CARTESIAN_POINT ( 'NONE',  ( 0.1550000000000000544, 0.000000000000000000, -5.411796075206858278E-16 ) ) ;
#205 = CARTESIAN_POINT ( 'NONE',  ( 0.1550000000000060496, 0.000000000000000000, 1.800000000000002487 ) ) ;
#206 = EDGE_CURVE ( 'NONE', #155, #155, #27, .T. ) ;
#207 = CLOSED_SHELL ( 'NONE', ( #102, #168, #77, #260, #239, #22, #136, #121, #236, #186 ) ) ;
#208 = DIRECTION ( 'NONE',  ( 1.000000000000000000, 0.000000000000000000, -2.797941090285177224E-15 ) ) ;
#209 = FACE_OUTER_BOUND ( 'NONE', #65, .T. ) ;
#210 = DIRECTION ( 'NONE',  ( 0.000000000000000000, 0.000000000000000000, 1.000000000000000000 ) ) ;
#211 =( GEOMETRIC_REPRESENTATION_CONTEXT ( 3 ) GLOBAL_UNCERTAINTY_ASSIGNED_CONTEXT ( ( #97 ) ) GLOBAL_UNIT_ASSIGNED_CONTEXT ( ( #254, #41, #61 ) ) REPRESENTATION_CONTEXT ( 'NONE', 'WORKASPACE' ) );
#212 = ORIENTED_EDGE ( 'NONE', *, *, #62, .F. ) ;
#213 = APPROVAL_ROLE ( '' ) ;
#214 = ORIENTED_EDGE ( 'NONE', *, *, #5, .T. ) ;
#215 = DATE_AND_TIME ( #45, #240 ) ;
#216 = CONICAL_SURFACE ( 'NONE', #100, 0.1550000000000000544, 1.047197551196619392 ) ;
#217 = CARTESIAN_POINT ( 'NONE',  ( 0.2600000000000002309, 0.000000000000000000, 0.06062177826490675742 ) ) ;
#218 = EDGE_LOOP ( 'NONE', ( #52 ) ) ;
#219 = EDGE_LOOP ( 'NONE', ( #25 ) ) ;
#220 = DIRECTION ( 'NONE',  ( 1.000000000000000000, 0.000000000000000000, -3.469446951953614189E-15 ) ) ;
#221 = DATE_AND_TIME ( #30, #226 ) ;
#222 = EDGE_LOOP ( 'NONE', ( #268 ) ) ;
#223 = FACE_OUTER_BOUND ( 'NONE', #241, .T. ) ;
#224 = DIRECTION ( 'NONE',  ( 1.000000000000000000, 0.000000000000000000, -3.497426362856464529E-15 ) ) ;
#225 = CARTESIAN_POINT ( 'NONE',  ( 0.000000000000000000, 0.000000000000000000, 0.000000000000000000 ) ) ;
#226 = LOCAL_TIME ( 7, 46, 15.00000000000000000, #198 ) ;
#227 = VERTEX_POINT ( 'NONE', #205 ) ;
#228 = CARTESIAN_POINT ( 'NONE',  ( 6.284666409917640828E-15, 0.000000000000000000, 1.800000000000000266 ) ) ;
#229 = PERSON_AND_ORGANIZATION ( #256, #71 ) ;
#230 = AXIS2_PLACEMENT_3D ( 'NONE', #159, #182, #157 ) ;
#231 = AXIS2_PLACEMENT_3D ( 'NONE', #232, #143, #64 ) ;
#232 = CARTESIAN_POINT ( 'NONE',  ( 2.625772437308923810E-16, 0.000000000000000000, 0.07520511159824633252 ) ) ;
#233 = PERSON_AND_ORGANIZATION ( #256, #71 ) ;
#234 = EDGE_LOOP ( 'NONE', ( #104 ) ) ;
#235 = PERSON_AND_ORGANIZATION_ROLE ( 'creator' ) ;
#236 = ADVANCED_FACE ( 'NONE', ( #223, #265 ), #35, .T. ) ;
#237 = ORIENTED_EDGE ( 'NONE', *, *, #110, .F. ) ;
#238 = PERSON_AND_ORGANIZATION ( #256, #71 ) ;
#239 = ADVANCED_FACE ( 'NONE', ( #93, #14 ), #75, .T. ) ;
#240 = LOCAL_TIME ( 7, 46, 15.00000000000000000, #128 ) ;
#241 = EDGE_LOOP ( 'NONE', ( #31 ) ) ;
#242 = CARTESIAN_POINT ( 'NONE',  ( 1.326762908760390423E-13, 0.000000000000000000, 38.00000000000000000 ) ) ;
#243 = DIRECTION ( 'NONE',  ( 3.491481338843133355E-15, -0.000000000000000000, 1.000000000000000000 ) ) ;
#244 = CARTESIAN_POINT ( 'NONE',  ( 2.116598075394113745E-16, 0.000000000000000000, 0.06062177826490766641 ) ) ;
#245 = DIRECTION ( 'NONE',  ( 3.491481338843133355E-15, -0.000000000000000000, 1.000000000000000000 ) ) ;
#246 = CARTESIAN_POINT ( 'NONE',  ( 1.500000000000024425, 0.000000000000000000, 6.951260833767661573 ) ) ;
#247 = CIRCLE ( 'NONE', #252, 1.199999999999993072 ) ;
#248 = AXIS2_PLACEMENT_3D ( 'NONE', #120, #243, #220 ) ;
#249 = CC_DESIGN_DATE_AND_TIME_ASSIGNMENT ( #53, #87, ( #137 ) ) ;
#250 = DIRECTION ( 'NONE',  ( -1.000000000000000000, 0.000000000000000000, 3.491481338843133355E-15 ) ) ;
#251 = AXIS2_PLACEMENT_3D ( 'NONE', #94, #269, #224 ) ;
#252 = AXIS2_PLACEMENT_3D ( 'NONE', #148, #49, #70 ) ;
#253 = EDGE_CURVE ( 'NONE', #134, #134, #50, .T. ) ;
#254 =( LENGTH_UNIT ( ) NAMED_UNIT ( * ) SI_UNIT ( .MILLI., .METRE. ) );
#255 = CARTESIAN_POINT ( 'NONE',  ( 1.326762908760390423E-13, 0.000000000000000000, 38.00000000000000000 ) ) ;
#256 = PERSON ( 'UNSPECIFIED', 'UNSPECIFIED', 'UNSPECIFIED', ('UNSPECIFIED'), ('UNSPECIFIED'), ('UNSPECIFIED') ) ;
#257 = COORDINATED_UNIVERSAL_TIME_OFFSET ( 1, 0, .AHEAD. ) ;
#258 = AXIS2_PLACEMENT_3D ( 'NONE', #19, #185, #208 ) ;
#259 = ORIENTED_EDGE ( 'NONE', *, *, #190, .T. ) ;
#260 = ADVANCED_FACE ( 'NONE', ( #56, #135 ), #37, .T. ) ;
#261 = COORDINATED_UNIVERSAL_TIME_OFFSET ( 1, 0, .AHEAD. ) ;
#262 = CARTESIAN_POINT ( 'NONE',  ( 1.316288464743861212E-13, 0.000000000000000000, 37.69999999999999574 ) ) ;
#263 = PERSON_AND_ORGANIZATION ( #256, #71 ) ;
#264 = DIRECTION ( 'NONE',  ( 3.491481338843133355E-15, -0.000000000000000000, 1.000000000000000000 ) ) ;
#265 = FACE_BOUND ( 'NONE', #169, .T. ) ;
#266 = CIRCLE ( 'NONE', #15, 0.2600000000000000089 ) ;
#267 = CARTESIAN_POINT ( 'NONE',  ( 1.200000000000125855, 0.000000000000000000, 37.99999999999999289 ) ) ;
#268 = ORIENTED_EDGE ( 'NONE', *, *, #110, .T. ) ;
#269 = DIRECTION ( 'NONE',  ( 3.491481338843133355E-15, -0.000000000000000000, 1.000000000000000000 ) ) ;
#270 = ORIENTED_EDGE ( 'NONE', *, *, #253, .F. ) ;
#271 = DIRECTION ( 'NONE',  ( 1.000000000000000000, 0.000000000000000000, -4.625929269271491633E-15 ) ) ;
#272 = CARTESIAN_POINT ( 'NONE',  ( 0.1890741737109369602, 0.000000000000000000, 2.058819045102514345 ) ) ;
#273 = CIRCLE ( 'NONE', #258, 0.1549999999999997491 ) ;
#274 = CC_DESIGN_PERSON_AND_ORGANIZATION_ASSIGNMENT ( #238, #235, ( #137 ) ) ;
#275 = AXIS2_PLACEMENT_3D ( 'NONE', #255, #113, #271 ) ;
ENDSEC;
END-ISO-10303-21;
