ISO-10303-21;
HEADER;
FILE_DESCRIPTION (( 'STEP AP203' ),
    '1' );
FILE_NAME ('983778.step',
    '2021-11-24T14:55:46',
    ( '' ),
    ( '' ),
    'SwSTEP 2.0',
    'SolidWorks 2019',
    '' );
FILE_SCHEMA (( 'CONFIG_CONTROL_DESIGN' ));
ENDSEC;

DATA;
#1 = ORIENTED_EDGE ( 'NONE', *, *, #86, .F. ) ;
#2 = EDGE_LOOP ( 'NONE', ( #1 ) ) ;
#3 = APPROVAL_PERSON_ORGANIZATION ( #50, #162, #71 ) ;
#4 = ORIENTED_EDGE ( 'NONE', *, *, #7, .F. ) ;
#5 = FACE_OUTER_BOUND ( 'NONE', #208, .T. ) ;
#6 = DIRECTION ( 'NONE',  ( -4.275831445896958607E-31, -1.000000000000000000, -1.224646799147353207E-16 ) ) ;
#7 = EDGE_CURVE ( 'NONE', #46, #46, #98, .T. ) ;
#8 = APPLICATION_CONTEXT ( 'configuration controlled 3d designs of mechanical parts and assemblies' ) ;
#9 = AXIS2_PLACEMENT_3D ( 'NONE', #45, #27, #197 ) ;
#10 = FACE_OUTER_BOUND ( 'NONE', #148, .T. ) ;
#11 = CARTESIAN_POINT ( 'NONE',  ( 9.463679131915806782E-32, 0.02500000000000000139, 2.710505431213761085E-17 ) ) ;
#12 = APPLICATION_CONTEXT ( 'configuration controlled 3d designs of mechanical parts and assemblies' ) ;
#13 = AXIS2_PLACEMENT_3D ( 'NONE', #15, #92, #163 ) ;
#14 = DATE_AND_TIME ( #17, #214 ) ;
#15 = CARTESIAN_POINT ( 'NONE',  ( 0.0000000000000000000, 0.0000000000000000000, 0.0000000000000000000 ) ) ;
#16 = COORDINATED_UNIVERSAL_TIME_OFFSET ( 1, 0, .AHEAD. ) ;
#17 = CALENDAR_DATE ( 2021, 24, 11 ) ;
#18 = EDGE_LOOP ( 'NONE', ( #97 ) ) ;
#19 = CIRCLE ( 'NONE', #169, 0.02500000000000000139 ) ;
#20 = DIRECTION ( 'NONE',  ( -3.491481338843133355E-15, 1.224646799147353207E-16, -1.000000000000000000 ) ) ;
#21 = CARTESIAN_POINT ( 'NONE',  ( 8.394721270441566693E-32, -2.944471854741984234E-33, 2.404343731426922537E-17 ) ) ;
#22 = PRODUCT_RELATED_PRODUCT_CATEGORY ( 'detail', '', ( #198 ) ) ;
#23 = ORIENTED_EDGE ( 'NONE', *, *, #7, .T. ) ;
#24 = CC_DESIGN_PERSON_AND_ORGANIZATION_ASSIGNMENT ( #168, #143, ( #75 ) ) ;
#25 = DIRECTION ( 'NONE',  ( 3.491481338843133355E-15, -1.224646799147353207E-16, 1.000000000000000000 ) ) ;
#26 = CARTESIAN_POINT ( 'NONE',  ( 0.0000000000000000000, 0.0000000000000000000, 0.0000000000000000000 ) ) ;
#27 = DIRECTION ( 'NONE',  ( -3.491481338843133355E-15, 1.224646799147353207E-16, -1.000000000000000000 ) ) ;
#28 = FACE_BOUND ( 'NONE', #230, .T. ) ;
#29 = DIRECTION ( 'NONE',  ( -3.491481338843133355E-15, 1.224646799147353207E-16, -1.000000000000000000 ) ) ;
#30 = CALENDAR_DATE ( 2021, 24, 11 ) ;
#31 = AXIS2_PLACEMENT_3D ( 'NONE', #43, #177, #195 ) ;
#32 = PRODUCT_DEFINITION_FORMATION_WITH_SPECIFIED_SOURCE ( 'ANY', '', #198, .NOT_KNOWN. ) ;
#33 = CC_DESIGN_PERSON_AND_ORGANIZATION_ASSIGNMENT ( #205, #166, ( #32 ) ) ;
#34 = CALENDAR_DATE ( 2021, 24, 11 ) ;
#35 = CONICAL_SURFACE ( 'NONE', #185, 0.2499999999999998890, 0.7853981633974428389 ) ;
#36 = ORIENTED_EDGE ( 'NONE', *, *, #113, .F. ) ;
#37 = ORIENTED_EDGE ( 'NONE', *, *, #127, .T. ) ;
#38 = CC_DESIGN_PERSON_AND_ORGANIZATION_ASSIGNMENT ( #238, #144, ( #198 ) ) ;
#39 = EDGE_LOOP ( 'NONE', ( #173 ) ) ;
#40 = DIRECTION ( 'NONE',  ( 4.275831445896959482E-31, 1.000000000000000000, 1.224646799147353700E-16 ) ) ;
#41 = AXIS2_PLACEMENT_3D ( 'NONE', #179, #29, #216 ) ;
#42 = LOCAL_TIME ( 15, 55, 46.00000000000000000, #161 ) ;
#43 = CARTESIAN_POINT ( 'NONE',  ( 1.326762908760390423E-13, -4.653657836759941941E-15, 38.00000000000000000 ) ) ;
#44 = FACE_OUTER_BOUND ( 'NONE', #114, .T. ) ;
#45 = CARTESIAN_POINT ( 'NONE',  ( 1.326762908760390423E-13, 8.998558695971078593E-33, 38.00000000000000000 ) ) ;
#46 = VERTEX_POINT ( 'NONE', #232 ) ;
#47 = CYLINDRICAL_SURFACE ( 'NONE', #213, 0.2499999999999998335 ) ;
#48 = APPROVAL_DATE_TIME ( #224, #196 ) ;
#49 = ADVANCED_FACE ( 'NONE', ( #78 ), #57, .T. ) ;
#50 = PERSON_AND_ORGANIZATION ( #181, #165 ) ;
#51 = APPROVAL_ROLE ( '' ) ;
#52 = CIRCLE ( 'NONE', #83, 1.499999999999996003 ) ;
#53 = AXIS2_PLACEMENT_3D ( 'NONE', #65, #88, #217 ) ;
#54 = CALENDAR_DATE ( 2021, 24, 11 ) ;
#55 = ORIENTED_EDGE ( 'NONE', *, *, #182, .T. ) ;
#56 = EDGE_LOOP ( 'NONE', ( #4 ) ) ;
#57 = PLANE ( 'NONE',  #74 ) ;
#58 = LOCAL_TIME ( 15, 55, 46.00000000000000000, #16 ) ;
#59 = EDGE_LOOP ( 'NONE', ( #55 ) ) ;
#60 = FACE_OUTER_BOUND ( 'NONE', #39, .T. ) ;
#61 = FACE_OUTER_BOUND ( 'NONE', #130, .T. ) ;
#62 = CIRCLE ( 'NONE', #154, 1.500000000000000000 ) ;
#63 = VERTEX_POINT ( 'NONE', #11 ) ;
#64 = APPROVAL ( #164, 'UNSPECIFIED' ) ;
#65 = CARTESIAN_POINT ( 'NONE',  ( 7.855833012397130908E-16, -2.755455298081573127E-17, 0.2250000000000023370 ) ) ;
#66 = VERTEX_POINT ( 'NONE', #142 ) ;
#67 =( GEOMETRIC_REPRESENTATION_CONTEXT ( 3 ) GLOBAL_UNCERTAINTY_ASSIGNED_CONTEXT ( ( #79 ) ) GLOBAL_UNIT_ASSIGNED_CONTEXT ( ( #124, #72, #70 ) ) REPRESENTATION_CONTEXT ( 'NONE', 'WORKASPACE' ) );
#68 = AXIS2_PLACEMENT_3D ( 'NONE', #116, #133, #189 ) ;
#69 = CARTESIAN_POINT ( 'NONE',  ( 1.279650084895842456E-14, 1.499999999999995559, 3.665063509461119917 ) ) ;
#70 =( NAMED_UNIT ( * ) SI_UNIT ( $, .STERADIAN. ) SOLID_ANGLE_UNIT ( ) );
#71 = APPROVAL_ROLE ( '' ) ;
#72 =( NAMED_UNIT ( * ) PLANE_ANGLE_UNIT ( ) SI_UNIT ( $, .RADIAN. ) );
#73 = PERSON_AND_ORGANIZATION ( #181, #165 ) ;
#74 = AXIS2_PLACEMENT_3D ( 'NONE', #209, #99, #100 ) ;
#75 = PRODUCT_DEFINITION ( 'UNKNOWN', '', #32, #174 ) ;
#76 = ORIENTED_EDGE ( 'NONE', *, *, #89, .T. ) ;
#77 = CC_DESIGN_PERSON_AND_ORGANIZATION_ASSIGNMENT ( #241, #226, ( #32 ) ) ;
#78 = FACE_OUTER_BOUND ( 'NONE', #131, .T. ) ;
#79 = UNCERTAINTY_MEASURE_WITH_UNIT (LENGTH_MEASURE( 1.000000000000000082E-05 ), #124, 'distance_accuracy_value', 'NONE');
#80 = DIRECTION ( 'NONE',  ( 0.0000000000000000000, 1.000000000000000000, 0.0000000000000000000 ) ) ;
#81 = DIRECTION ( 'NONE',  ( 3.491481338843133355E-15, -1.224646799147353207E-16, 1.000000000000000000 ) ) ;
#82 = PLANE ( 'NONE',  #84 ) ;
#83 = AXIS2_PLACEMENT_3D ( 'NONE', #118, #134, #87 ) ;
#84 = AXIS2_PLACEMENT_3D ( 'NONE', #193, #25, #6 ) ;
#85 = CYLINDRICAL_SURFACE ( 'NONE', #187, 1.499999999999997780 ) ;
#86 = EDGE_CURVE ( 'NONE', #105, #105, #176, .T. ) ;
#87 = DIRECTION ( 'NONE',  ( 0.0000000000000000000, 1.000000000000000000, 0.0000000000000000000 ) ) ;
#88 = DIRECTION ( 'NONE',  ( -3.491481338843133355E-15, 1.224646799147353207E-16, -1.000000000000000000 ) ) ;
#89 = EDGE_CURVE ( 'NONE', #63, #63, #19, .T. ) ;
#90 = VERTEX_POINT ( 'NONE', #221 ) ;
#91 = PERSON_AND_ORGANIZATION_ROLE ( 'classification_officer' ) ;
#92 = DIRECTION ( 'NONE',  ( 0.0000000000000000000, 0.0000000000000000000, 1.000000000000000000 ) ) ;
#93 = DATE_TIME_ROLE ( 'classification_date' ) ;
#94 = CIRCLE ( 'NONE', #53, 0.2499999999999998890 ) ;
#95 = DATE_TIME_ROLE ( 'creation_date' ) ;
#96 = APPROVAL_STATUS ( 'not_yet_approved' ) ;
#97 = ORIENTED_EDGE ( 'NONE', *, *, #182, .F. ) ;
#98 = CIRCLE ( 'NONE', #171, 1.200000000000000178 ) ;
#99 = DIRECTION ( 'NONE',  ( 3.491481338843133355E-15, -1.224646799147353207E-16, 1.000000000000000000 ) ) ;
#100 = DIRECTION ( 'NONE',  ( -4.275831445896958607E-31, -1.000000000000000000, -1.224646799147353207E-16 ) ) ;
#101 = FACE_OUTER_BOUND ( 'NONE', #18, .T. ) ;
#102 = PLANE ( 'NONE',  #225 ) ;
#103 = ADVANCED_FACE ( 'NONE', ( #137, #156 ), #242, .T. ) ;
#104 = DIRECTION ( 'NONE',  ( -3.491481338843133355E-15, 1.224646799147353207E-16, -1.000000000000000000 ) ) ;
#105 = VERTEX_POINT ( 'NONE', #234 ) ;
#106 = PLANE ( 'NONE',  #9 ) ;
#107 = APPLICATION_PROTOCOL_DEFINITION ( 'international standard', 'config_control_design', 1994, #8 ) ;
#108 = DATE_AND_TIME ( #126, #42 ) ;
#109 = PERSON_AND_ORGANIZATION ( #181, #165 ) ;
#110 = CC_DESIGN_DATE_AND_TIME_ASSIGNMENT ( #108, #93, ( #160 ) ) ;
#111 = CLOSED_SHELL ( 'NONE', ( #228, #103, #172, #157, #136 ) ) ;
#112 = COORDINATED_UNIVERSAL_TIME_OFFSET ( 1, 0, .AHEAD. ) ;
#113 = EDGE_CURVE ( 'NONE', #158, #158, #115, .T. ) ;
#114 = EDGE_LOOP ( 'NONE', ( #76 ) ) ;
#115 = CIRCLE ( 'NONE', #41, 0.2499999999999997780 ) ;
#116 = CARTESIAN_POINT ( 'NONE',  ( 5.237222008264700033E-15, -1.836970198721029934E-16, 1.500000000000000000 ) ) ;
#117 = CARTESIAN_POINT ( 'NONE',  ( 1.326762908760390423E-13, -4.653657836759941941E-15, 38.00000000000000000 ) ) ;
#118 = CARTESIAN_POINT ( 'NONE',  ( 1.279650084895842456E-14, -4.488408295533326187E-16, 3.665063509461119917 ) ) ;
#119 = DIRECTION ( 'NONE',  ( 4.275831445896957731E-31, 1.000000000000000000, 1.224646799147353207E-16 ) ) ;
#120 = DIRECTION ( 'NONE',  ( 0.0000000000000000000, -1.000000000000000000, 0.0000000000000000000 ) ) ;
#121 = CARTESIAN_POINT ( 'NONE',  ( 1.279650084895842456E-14, -4.488408295533326187E-16, 3.665063509461119917 ) ) ;
#122 = CARTESIAN_POINT ( 'NONE',  ( 0.0000000000000000000, 0.0000000000000000000, 0.0000000000000000000 ) ) ;
#123 = MANIFOLD_SOLID_BREP ( 'Corps-Déplacer/Copier1[2]', #243 ) ;
#124 =( LENGTH_UNIT ( ) NAMED_UNIT ( * ) SI_UNIT ( .MILLI., .METRE. ) );
#125 = APPROVAL_STATUS ( 'not_yet_approved' ) ;
#126 = CALENDAR_DATE ( 2021, 24, 11 ) ;
#127 = EDGE_CURVE ( 'NONE', #66, #66, #62, .T. ) ;
#128 = COORDINATED_UNIVERSAL_TIME_OFFSET ( 1, 0, .AHEAD. ) ;
#129 = PERSON_AND_ORGANIZATION ( #181, #165 ) ;
#130 = EDGE_LOOP ( 'NONE', ( #192 ) ) ;
#131 = EDGE_LOOP ( 'NONE', ( #36 ) ) ;
#132 = ORIENTED_EDGE ( 'NONE', *, *, #113, .T. ) ;
#133 = DIRECTION ( 'NONE',  ( -3.491481338843133355E-15, 1.224646799147353207E-16, -1.000000000000000000 ) ) ;
#134 = DIRECTION ( 'NONE',  ( -3.491481338843133355E-15, 1.224646799147353207E-16, -1.000000000000000000 ) ) ;
#135 = CONICAL_SURFACE ( 'NONE', #31, 1.200000000000000178, 0.7853981633974453924 ) ;
#136 = ADVANCED_FACE ( 'NONE', ( #194 ), #106, .F. ) ;
#137 = FACE_BOUND ( 'NONE', #2, .T. ) ;
#138 = DIRECTION ( 'NONE',  ( 3.491481338843133355E-15, -1.224646799147353207E-16, 1.000000000000000000 ) ) ;
#139 = FACE_OUTER_BOUND ( 'NONE', #229, .T. ) ;
#140 = APPROVAL_PERSON_ORGANIZATION ( #73, #196, #167 ) ;
#141 = DIRECTION ( 'NONE',  ( -3.491481338843133355E-15, 1.224646799147353207E-16, -1.000000000000000000 ) ) ;
#142 = CARTESIAN_POINT ( 'NONE',  ( 1.316288464743861212E-13, 1.499999999999995559, 37.69999999999999574 ) ) ;
#143 = PERSON_AND_ORGANIZATION_ROLE ( 'creator' ) ;
#144 = PERSON_AND_ORGANIZATION_ROLE ( 'design_owner' ) ;
#145 = COORDINATED_UNIVERSAL_TIME_OFFSET ( 1, 0, .AHEAD. ) ;
#146 = ORIENTED_EDGE ( 'NONE', *, *, #220, .F. ) ;
#147 = CC_DESIGN_PERSON_AND_ORGANIZATION_ASSIGNMENT ( #109, #91, ( #160 ) ) ;
#148 = EDGE_LOOP ( 'NONE', ( #132 ) ) ;
#149 = LOCAL_TIME ( 15, 55, 46.00000000000000000, #145 ) ;
#150 = DIRECTION ( 'NONE',  ( 0.0000000000000000000, 1.000000000000000000, 0.0000000000000000000 ) ) ;
#151 = ADVANCED_FACE ( 'NONE', ( #139, #10 ), #47, .T. ) ;
#152 = DIRECTION ( 'NONE',  ( 3.491481338843133355E-15, -1.224646799147353207E-16, 1.000000000000000000 ) ) ;
#153 = AXIS2_PLACEMENT_3D ( 'NONE', #121, #138, #120 ) ;
#154 = AXIS2_PLACEMENT_3D ( 'NONE', #180, #141, #150 ) ;
#155 = CARTESIAN_POINT ( 'NONE',  ( 7.855833012397130908E-16, -2.755455298081573127E-17, 0.2250000000000023370 ) ) ;
#156 = FACE_OUTER_BOUND ( 'NONE', #59, .T. ) ;
#157 = ADVANCED_FACE ( 'NONE', ( #219, #28 ), #135, .T. ) ;
#158 = VERTEX_POINT ( 'NONE', #236 ) ;
#159 = PRODUCT_DEFINITION_SHAPE ( 'NONE', 'NONE',  #75 ) ;
#160 = SECURITY_CLASSIFICATION ( '', '', #202 ) ;
#161 = COORDINATED_UNIVERSAL_TIME_OFFSET ( 1, 0, .AHEAD. ) ;
#162 = APPROVAL ( #125, 'UNSPECIFIED' ) ;
#163 = DIRECTION ( 'NONE',  ( 1.000000000000000000, 0.0000000000000000000, 0.0000000000000000000 ) ) ;
#164 = APPROVAL_STATUS ( 'not_yet_approved' ) ;
#165 = ORGANIZATION ( 'UNSPECIFIED', 'UNSPECIFIED', '' ) ;
#166 = PERSON_AND_ORGANIZATION_ROLE ( 'design_supplier' ) ;
#167 = APPROVAL_ROLE ( '' ) ;
#168 = PERSON_AND_ORGANIZATION ( #181, #165 ) ;
#169 = AXIS2_PLACEMENT_3D ( 'NONE', #21, #211, #40 ) ;
#170 = ORIENTED_EDGE ( 'NONE', *, *, #89, .F. ) ;
#171 = AXIS2_PLACEMENT_3D ( 'NONE', #117, #20, #80 ) ;
#172 = ADVANCED_FACE ( 'NONE', ( #101, #5 ), #85, .T. ) ;
#173 = ORIENTED_EDGE ( 'NONE', *, *, #220, .T. ) ;
#174 = DESIGN_CONTEXT ( 'detailed design', #12, 'design' ) ;
#175 = CC_DESIGN_SECURITY_CLASSIFICATION ( #160, ( #32 ) ) ;
#176 = CIRCLE ( 'NONE', #68, 0.2499999999999997780 ) ;
#177 = DIRECTION ( 'NONE',  ( -3.491481338843133355E-15, 1.224646799147353207E-16, -1.000000000000000000 ) ) ;
#178 = DIRECTION ( 'NONE',  ( 4.275831445896959482E-31, 1.000000000000000000, 1.224646799147353207E-16 ) ) ;
#179 = CARTESIAN_POINT ( 'NONE',  ( 5.237222008264700033E-15, -1.836970198721029934E-16, 1.500000000000000000 ) ) ;
#180 = CARTESIAN_POINT ( 'NONE',  ( 1.316288464743861212E-13, -4.616918432785521081E-15, 37.69999999999999574 ) ) ;
#181 = PERSON ( 'UNSPECIFIED', 'UNSPECIFIED', 'UNSPECIFIED', ('UNSPECIFIED'), ('UNSPECIFIED'), ('UNSPECIFIED') ) ;
#182 = EDGE_CURVE ( 'NONE', #203, #203, #52, .T. ) ;
#183 = APPROVAL_DATE_TIME ( #222, #162 ) ;
#184 = MECHANICAL_CONTEXT ( 'NONE', #8, 'mechanical' ) ;
#185 = AXIS2_PLACEMENT_3D ( 'NONE', #155, #152, #212 ) ;
#186 = SHAPE_DEFINITION_REPRESENTATION ( #159, #191 ) ;
#187 = AXIS2_PLACEMENT_3D ( 'NONE', #26, #215, #178 ) ;
#188 = EDGE_LOOP ( 'NONE', ( #170 ) ) ;
#189 = DIRECTION ( 'NONE',  ( 0.0000000000000000000, 1.000000000000000000, 0.0000000000000000000 ) ) ;
#190 = ORIENTED_EDGE ( 'NONE', *, *, #127, .F. ) ;
#191 = ADVANCED_BREP_SHAPE_REPRESENTATION ( '983778', ( #200, #123, #13 ), #67 ) ;
#192 = ORIENTED_EDGE ( 'NONE', *, *, #86, .T. ) ;
#193 = CARTESIAN_POINT ( 'NONE',  ( 5.237222008264700033E-15, 1.874699728327317562E-33, 1.500000000000000000 ) ) ;
#194 = FACE_OUTER_BOUND ( 'NONE', #56, .T. ) ;
#195 = DIRECTION ( 'NONE',  ( 0.0000000000000000000, 1.000000000000000000, 0.0000000000000000000 ) ) ;
#196 = APPROVAL ( #96, 'UNSPECIFIED' ) ;
#197 = DIRECTION ( 'NONE',  ( 4.275831445896958607E-31, 1.000000000000000000, 1.224646799147353207E-16 ) ) ;
#198 = PRODUCT ( '983778', '983778', '', ( #184 ) ) ;
#199 = DIRECTION ( 'NONE',  ( -4.275831445896958607E-31, -1.000000000000000000, -1.224646799147353207E-16 ) ) ;
#200 = MANIFOLD_SOLID_BREP ( 'Corps-Déplacer/Copier1[1]', #111 ) ;
#201 = ADVANCED_FACE ( 'NONE', ( #44 ), #102, .F. ) ;
#202 = SECURITY_CLASSIFICATION_LEVEL ( 'unclassified' ) ;
#203 = VERTEX_POINT ( 'NONE', #69 ) ;
#204 = CC_DESIGN_APPROVAL ( #64, ( #160 ) ) ;
#205 = PERSON_AND_ORGANIZATION ( #181, #165 ) ;
#206 = EDGE_LOOP ( 'NONE', ( #190 ) ) ;
#207 = ADVANCED_FACE ( 'NONE', ( #231, #60 ), #35, .T. ) ;
#208 = EDGE_LOOP ( 'NONE', ( #37 ) ) ;
#209 = CARTESIAN_POINT ( 'NONE',  ( 5.237222008264700033E-15, 1.874699728327317562E-33, 1.500000000000000000 ) ) ;
#210 = APPROVAL_PERSON_ORGANIZATION ( #129, #64, #51 ) ;
#211 = DIRECTION ( 'NONE',  ( -3.491481338843133355E-15, 1.224646799147353207E-16, -1.000000000000000000 ) ) ;
#212 = DIRECTION ( 'NONE',  ( -3.851859888774473458E-31, -1.000000000000000000, -1.084202172485504927E-16 ) ) ;
#213 = AXIS2_PLACEMENT_3D ( 'NONE', #122, #104, #119 ) ;
#214 = LOCAL_TIME ( 15, 55, 46.00000000000000000, #128 ) ;
#215 = DIRECTION ( 'NONE',  ( -3.491481338843133355E-15, 1.224646799147353207E-16, -1.000000000000000000 ) ) ;
#216 = DIRECTION ( 'NONE',  ( 0.0000000000000000000, 1.000000000000000000, 0.0000000000000000000 ) ) ;
#217 = DIRECTION ( 'NONE',  ( 3.851859888774473458E-31, 1.000000000000000000, 1.084202172485504927E-16 ) ) ;
#218 = CC_DESIGN_APPROVAL ( #196, ( #32 ) ) ;
#219 = FACE_OUTER_BOUND ( 'NONE', #206, .T. ) ;
#220 = EDGE_CURVE ( 'NONE', #90, #90, #94, .T. ) ;
#221 = CARTESIAN_POINT ( 'NONE',  ( 7.855833012397131894E-16, 0.2499999999999998335, 0.2250000000000023648 ) ) ;
#222 = DATE_AND_TIME ( #34, #149 ) ;
#223 = APPLICATION_PROTOCOL_DEFINITION ( 'international standard', 'config_control_design', 1994, #12 ) ;
#224 = DATE_AND_TIME ( #54, #237 ) ;
#225 = AXIS2_PLACEMENT_3D ( 'NONE', #235, #81, #199 ) ;
#226 = PERSON_AND_ORGANIZATION_ROLE ( 'creator' ) ;
#227 = APPROVAL_DATE_TIME ( #239, #64 ) ;
#228 = ADVANCED_FACE ( 'NONE', ( #61 ), #82, .F. ) ;
#229 = EDGE_LOOP ( 'NONE', ( #146 ) ) ;
#230 = EDGE_LOOP ( 'NONE', ( #23 ) ) ;
#231 = FACE_BOUND ( 'NONE', #188, .T. ) ;
#232 = CARTESIAN_POINT ( 'NONE',  ( 1.326762908760390423E-13, 1.199999999999995515, 38.00000000000000000 ) ) ;
#233 = CC_DESIGN_APPROVAL ( #162, ( #75 ) ) ;
#234 = CARTESIAN_POINT ( 'NONE',  ( 5.237222008264700033E-15, 0.2499999999999996392, 1.500000000000000000 ) ) ;
#235 = CARTESIAN_POINT ( 'NONE',  ( 4.197360635220783346E-32, -1.472235927370992117E-33, 1.202171865713461268E-17 ) ) ;
#236 = CARTESIAN_POINT ( 'NONE',  ( 5.237222008264700033E-15, 0.2499999999999996392, 1.500000000000000000 ) ) ;
#237 = LOCAL_TIME ( 15, 55, 46.00000000000000000, #112 ) ;
#238 = PERSON_AND_ORGANIZATION ( #181, #165 ) ;
#239 = DATE_AND_TIME ( #30, #58 ) ;
#240 = CC_DESIGN_DATE_AND_TIME_ASSIGNMENT ( #14, #95, ( #75 ) ) ;
#241 = PERSON_AND_ORGANIZATION ( #181, #165 ) ;
#242 = CONICAL_SURFACE ( 'NONE', #153, 1.499999999999996003, 0.5235987755982928205 ) ;
#243 = CLOSED_SHELL ( 'NONE', ( #201, #207, #151, #49 ) ) ;
ENDSEC;
END-ISO-10303-21;
