ISO-10303-21;
HEADER;
FILE_DESCRIPTION (( 'STEP AP203' ),
    '1' );
FILE_NAME ('983633.step',
    '2021-12-16T08:57:33',
    ( '' ),
    ( '' ),
    'SwSTEP 2.0',
    'SolidWorks 2019',
    '' );
FILE_SCHEMA (( 'CONFIG_CONTROL_DESIGN' ));
ENDSEC;

DATA;
#1 = FACE_OUTER_BOUND ( 'NONE', #85, .T. ) ;
#2 = EDGE_LOOP ( 'NONE', ( #136 ) ) ;
#3 = DIRECTION ( 'NONE',  ( -3.491481338843133355E-15, 1.224646799147353207E-16, -1.000000000000000000 ) ) ;
#4 = CARTESIAN_POINT ( 'NONE',  ( 1.576676675779215524E-15, -5.530237331650983712E-17, 0.4515781477158435364 ) ) ;
#5 = PRODUCT_DEFINITION_FORMATION_WITH_SPECIFIED_SOURCE ( 'ANY', '', #199, .NOT_KNOWN. ) ;
#6 = CC_DESIGN_PERSON_AND_ORGANIZATION_ASSIGNMENT ( #114, #215, ( #109 ) ) ;
#7 = CARTESIAN_POINT ( 'NONE',  ( 2.218555868924580576E-14, -7.781646470172156061E-16, 6.354196553316467266 ) ) ;
#8 = DIRECTION ( 'NONE',  ( -3.491481338843133355E-15, 1.224646799147353207E-16, -1.000000000000000000 ) ) ;
#9 = FACE_OUTER_BOUND ( 'NONE', #257, .T. ) ;
#10 = CYLINDRICAL_SURFACE ( 'NONE', #253, 0.3109999999999998321 ) ;
#11 = CC_DESIGN_APPROVAL ( #270, ( #5 ) ) ;
#12 = FACE_BOUND ( 'NONE', #240, .T. ) ;
#13 = CARTESIAN_POINT ( 'NONE',  ( 1.047444401652940007E-13, 4.499279347985518085E-33, 30.00000000000000000 ) ) ;
#14 = CONICAL_SURFACE ( 'NONE', #44, 0.6000000000000000888, 0.7853981633974450594 ) ;
#15 = CC_DESIGN_APPROVAL ( #71, ( #109 ) ) ;
#16 = CC_DESIGN_PERSON_AND_ORGANIZATION_ASSIGNMENT ( #57, #248, ( #5 ) ) ;
#17 = AXIS2_PLACEMENT_3D ( 'NONE', #166, #271, #142 ) ;
#18 = ADVANCED_FACE ( 'NONE', ( #47, #200 ), #186, .T. ) ;
#19 = TOROIDAL_SURFACE ( 'NONE', #141, 0.8109999999999997211, 0.5000000000000002220 ) ;
#20 = EDGE_LOOP ( 'NONE', ( #21 ) ) ;
#21 = ORIENTED_EDGE ( 'NONE', *, *, #212, .T. ) ;
#22 = DIRECTION ( 'NONE',  ( 4.275831445896958607E-31, 1.000000000000000000, 1.224646799147353454E-16 ) ) ;
#23 = ADVANCED_FACE ( 'NONE', ( #230, #185 ), #77, .T. ) ;
#24 = DIRECTION ( 'NONE',  ( -4.275831445896958607E-31, -1.000000000000000000, -1.224646799147353207E-16 ) ) ;
#25 = DIRECTION ( 'NONE',  ( 0.0000000000000000000, 1.000000000000000000, 0.0000000000000000000 ) ) ;
#26 = AXIS2_PLACEMENT_3D ( 'NONE', #261, #224, #97 ) ;
#27 = CARTESIAN_POINT ( 'NONE',  ( 1.396592535537253342E-14, 2.332126462039179398E-33, 4.000000000000000000 ) ) ;
#28 = DIRECTION ( 'NONE',  ( -3.491481338843133355E-15, 1.224646799147353207E-16, -1.000000000000000000 ) ) ;
#29 = CARTESIAN_POINT ( 'NONE',  ( 1.042207179644675275E-13, -3.655570695454848748E-15, 29.84999999999999787 ) ) ;
#30 = VERTEX_POINT ( 'NONE', #169 ) ;
#31 = LOCAL_TIME ( 9, 57, 33.00000000000000000, #194 ) ;
#32 = CARTESIAN_POINT ( 'NONE',  ( -1.995367866209897916E-31, 6.998808337566840438E-33, -5.714960707397172228E-17 ) ) ;
#33 = CARTESIAN_POINT ( 'NONE',  ( 2.218555868924580576E-14, 0.7499999999999963363, 6.354196553316467266 ) ) ;
#34 = PERSON_AND_ORGANIZATION_ROLE ( 'creator' ) ;
#35 = CIRCLE ( 'NONE', #59, 0.3109999999999997766 ) ;
#36 = VERTEX_POINT ( 'NONE', #214 ) ;
#37 = CALENDAR_DATE ( 2021, 16, 12 ) ;
#38 = CC_DESIGN_PERSON_AND_ORGANIZATION_ASSIGNMENT ( #107, #216, ( #90 ) ) ;
#39 = APPROVAL_STATUS ( 'not_yet_approved' ) ;
#40 = COORDINATED_UNIVERSAL_TIME_OFFSET ( 1, 0, .AHEAD. ) ;
#41 = ORIENTED_EDGE ( 'NONE', *, *, #212, .F. ) ;
#42 = APPROVAL_STATUS ( 'not_yet_approved' ) ;
#43 = EDGE_LOOP ( 'NONE', ( #154 ) ) ;
#44 = AXIS2_PLACEMENT_3D ( 'NONE', #211, #94, #48 ) ;
#45 = ORIENTED_EDGE ( 'NONE', *, *, #164, .T. ) ;
#46 = ADVANCED_FACE ( 'NONE', ( #241 ), #245, .F. ) ;
#47 = FACE_BOUND ( 'NONE', #115, .T. ) ;
#48 = DIRECTION ( 'NONE',  ( 0.0000000000000000000, 1.000000000000000000, 0.0000000000000000000 ) ) ;
#49 = DIRECTION ( 'NONE',  ( 4.275831445896958607E-31, 1.000000000000000000, 1.224646799147353207E-16 ) ) ;
#50 = DIRECTION ( 'NONE',  ( -4.275831445896958607E-31, -1.000000000000000000, -1.224646799147353207E-16 ) ) ;
#51 = CARTESIAN_POINT ( 'NONE',  ( 1.576676675779215721E-15, 0.3109999999999992770, 0.4515781477158435919 ) ) ;
#52 = APPLICATION_CONTEXT ( 'configuration controlled 3d designs of mechanical parts and assemblies' ) ;
#53 = FACE_OUTER_BOUND ( 'NONE', #119, .T. ) ;
#54 = CLOSED_SHELL ( 'NONE', ( #134, #106, #256, #81, #246, #202, #213 ) ) ;
#55 = AXIS2_PLACEMENT_3D ( 'NONE', #29, #172, #126 ) ;
#56 = CC_DESIGN_PERSON_AND_ORGANIZATION_ASSIGNMENT ( #238, #34, ( #5 ) ) ;
#57 = PERSON_AND_ORGANIZATION ( #254, #88 ) ;
#58 = AXIS2_PLACEMENT_3D ( 'NONE', #148, #145, #262 ) ;
#59 = AXIS2_PLACEMENT_3D ( 'NONE', #140, #226, #25 ) ;
#60 = DATE_AND_TIME ( #173, #69 ) ;
#61 = CALENDAR_DATE ( 2021, 16, 12 ) ;
#62 = APPROVAL_PERSON_ORGANIZATION ( #125, #168, #210 ) ;
#63 = FACE_OUTER_BOUND ( 'NONE', #195, .T. ) ;
#64 = EDGE_LOOP ( 'NONE', ( #139 ) ) ;
#65 = PLANE ( 'NONE',  #191 ) ;
#66 = ORIENTED_EDGE ( 'NONE', *, *, #181, .F. ) ;
#67 = CC_DESIGN_DATE_AND_TIME_ASSIGNMENT ( #149, #278, ( #90 ) ) ;
#68 = AXIS2_PLACEMENT_3D ( 'NONE', #4, #183, #98 ) ;
#69 = LOCAL_TIME ( 9, 57, 33.00000000000000000, #112 ) ;
#70 = CARTESIAN_POINT ( 'NONE',  ( 1.623538822562057326E-14, -5.694607616035192869E-16, 4.650000000000000355 ) ) ;
#71 = APPROVAL ( #42, 'UNSPECIFIED' ) ;
#72 = FACE_OUTER_BOUND ( 'NONE', #221, .T. ) ;
#73 = AXIS2_PLACEMENT_3D ( 'NONE', #7, #76, #74 ) ;
#74 = DIRECTION ( 'NONE',  ( 0.0000000000000000000, 1.000000000000000000, 0.0000000000000000000 ) ) ;
#75 = PLANE ( 'NONE',  #193 ) ;
#76 = DIRECTION ( 'NONE',  ( -3.491481338843133355E-15, 1.224646799147353207E-16, -1.000000000000000000 ) ) ;
#77 = CYLINDRICAL_SURFACE ( 'NONE', #155, 0.3109999999999995546 ) ;
#78 = EDGE_CURVE ( 'NONE', #79, #79, #87, .T. ) ;
#79 = VERTEX_POINT ( 'NONE', #33 ) ;
#80 = CARTESIAN_POINT ( 'NONE',  ( 1.668721915867688301E-14, 0.3280370868554638997, 4.779409522551257616 ) ) ;
#81 = ADVANCED_FACE ( 'NONE', ( #190, #203 ), #105, .T. ) ;
#82 = AXIS2_PLACEMENT_3D ( 'NONE', #27, #265, #167 ) ;
#83 = SHAPE_DEFINITION_REPRESENTATION ( #138, #222 ) ;
#84 = COORDINATED_UNIVERSAL_TIME_OFFSET ( 1, 0, .AHEAD. ) ;
#85 = EDGE_LOOP ( 'NONE', ( #218 ) ) ;
#86 = APPROVAL_DATE_TIME ( #156, #270 ) ;
#87 = CIRCLE ( 'NONE', #73, 0.7499999999999971134 ) ;
#88 = ORGANIZATION ( 'UNSPECIFIED', 'UNSPECIFIED', '' ) ;
#89 = EDGE_LOOP ( 'NONE', ( #179 ) ) ;
#90 = PRODUCT_DEFINITION ( 'UNKNOWN', '', #5, #95 ) ;
#91 =( NAMED_UNIT ( * ) PLANE_ANGLE_UNIT ( ) SI_UNIT ( $, .RADIAN. ) );
#92 = EDGE_LOOP ( 'NONE', ( #197 ) ) ;
#93 = CARTESIAN_POINT ( 'NONE',  ( 0.0000000000000000000, 0.0000000000000000000, 0.0000000000000000000 ) ) ;
#94 = DIRECTION ( 'NONE',  ( -3.491481338843133355E-15, 1.224646799147353207E-16, -1.000000000000000000 ) ) ;
#95 = DESIGN_CONTEXT ( 'detailed design', #206, 'design' ) ;
#96 = PRODUCT_RELATED_PRODUCT_CATEGORY ( 'detail', '', ( #199 ) ) ;
#97 = DIRECTION ( 'NONE',  ( 1.000000000000000000, 0.0000000000000000000, 0.0000000000000000000 ) ) ;
#98 = DIRECTION ( 'NONE',  ( -6.192700785811060846E-31, -1.000000000000000000, -1.743090309462229462E-16 ) ) ;
#99 = CIRCLE ( 'NONE', #275, 0.1899999999999999745 ) ;
#100 = DIRECTION ( 'NONE',  ( -3.491481338843133355E-15, 1.224646799147353207E-16, -1.000000000000000000 ) ) ;
#101 = FACE_OUTER_BOUND ( 'NONE', #89, .T. ) ;
#102 = CARTESIAN_POINT ( 'NONE',  ( -9.976839331049489581E-32, 3.499404168783420219E-33, -2.857480353698586114E-17 ) ) ;
#103 = CARTESIAN_POINT ( 'NONE',  ( 1.047444401652940007E-13, 0.5999999999999963141, 30.00000000000000000 ) ) ;
#104 = VERTEX_POINT ( 'NONE', #80 ) ;
#105 = CONICAL_SURFACE ( 'NONE', #217, 0.7499999999999971134, 0.2617993877991429130 ) ;
#106 = ADVANCED_FACE ( 'NONE', ( #53, #72 ), #10, .T. ) ;
#107 = PERSON_AND_ORGANIZATION ( #254, #88 ) ;
#108 = DATE_TIME_ROLE ( 'classification_date' ) ;
#109 = SECURITY_CLASSIFICATION ( '', '', #152 ) ;
#110 = EDGE_CURVE ( 'NONE', #170, #170, #146, .T. ) ;
#111 = APPROVAL_ROLE ( '' ) ;
#112 = COORDINATED_UNIVERSAL_TIME_OFFSET ( 1, 0, .AHEAD. ) ;
#113 = ORIENTED_EDGE ( 'NONE', *, *, #124, .F. ) ;
#114 = PERSON_AND_ORGANIZATION ( #254, #88 ) ;
#115 = EDGE_LOOP ( 'NONE', ( #176 ) ) ;
#116 = CIRCLE ( 'NONE', #151, 0.3109999999999993325 ) ;
#117 =( NAMED_UNIT ( * ) SI_UNIT ( $, .STERADIAN. ) SOLID_ANGLE_UNIT ( ) );
#118 = EDGE_LOOP ( 'NONE', ( #113 ) ) ;
#119 = EDGE_LOOP ( 'NONE', ( #41 ) ) ;
#120 = CARTESIAN_POINT ( 'NONE',  ( 1.396592535537253342E-14, 2.332126462039179398E-33, 4.000000000000000000 ) ) ;
#121 = FACE_OUTER_BOUND ( 'NONE', #43, .T. ) ;
#122 = DIRECTION ( 'NONE',  ( -3.491481338843133355E-15, 1.224646799147353207E-16, -1.000000000000000000 ) ) ;
#123 = DIRECTION ( 'NONE',  ( 0.0000000000000000000, 1.000000000000000000, 0.0000000000000000000 ) ) ;
#124 = EDGE_CURVE ( 'NONE', #104, #104, #150, .T. ) ;
#125 = PERSON_AND_ORGANIZATION ( #254, #88 ) ;
#126 = DIRECTION ( 'NONE',  ( 0.0000000000000000000, 1.000000000000000000, 0.0000000000000000000 ) ) ;
#127 = PERSON_AND_ORGANIZATION_ROLE ( 'design_owner' ) ;
#128 = DIRECTION ( 'NONE',  ( 4.275831445896958607E-31, 1.000000000000000000, 1.224646799147353207E-16 ) ) ;
#129 = APPROVAL_ROLE ( '' ) ;
#130 = VERTEX_POINT ( 'NONE', #276 ) ;
#131 = EDGE_CURVE ( 'NONE', #36, #36, #220, .T. ) ;
#132 =( GEOMETRIC_REPRESENTATION_CONTEXT ( 3 ) GLOBAL_UNCERTAINTY_ASSIGNED_CONTEXT ( ( #272 ) ) GLOBAL_UNIT_ASSIGNED_CONTEXT ( ( #237, #91, #117 ) ) REPRESENTATION_CONTEXT ( 'NONE', 'WORKASPACE' ) );
#133 = ORIENTED_EDGE ( 'NONE', *, *, #124, .T. ) ;
#134 = ADVANCED_FACE ( 'NONE', ( #243 ), #165, .F. ) ;
#135 = DIRECTION ( 'NONE',  ( 3.491481338843133355E-15, -1.224646799147353207E-16, 1.000000000000000000 ) ) ;
#136 = ORIENTED_EDGE ( 'NONE', *, *, #110, .T. ) ;
#137 = AXIS2_PLACEMENT_3D ( 'NONE', #70, #232, #201 ) ;
#138 = PRODUCT_DEFINITION_SHAPE ( 'NONE', 'NONE',  #90 ) ;
#139 = ORIENTED_EDGE ( 'NONE', *, *, #158, .F. ) ;
#140 = CARTESIAN_POINT ( 'NONE',  ( 1.396592535537253342E-14, -4.898587196589412829E-16, 4.000000000000000000 ) ) ;
#141 = AXIS2_PLACEMENT_3D ( 'NONE', #189, #209, #234 ) ;
#142 = DIRECTION ( 'NONE',  ( 0.0000000000000000000, 1.000000000000000000, 0.0000000000000000000 ) ) ;
#143 = CARTESIAN_POINT ( 'NONE',  ( 1.576676675779215524E-15, -5.530237331650983712E-17, 0.4515781477158435364 ) ) ;
#144 = EDGE_CURVE ( 'NONE', #130, #130, #99, .T. ) ;
#145 = DIRECTION ( 'NONE',  ( -3.491481338843133355E-15, 1.224646799147353207E-16, -1.000000000000000000 ) ) ;
#146 = CIRCLE ( 'NONE', #17, 0.3109999999999997766 ) ;
#147 = CIRCLE ( 'NONE', #55, 0.7499999999999998890 ) ;
#148 = CARTESIAN_POINT ( 'NONE',  ( 1.668721915867688301E-14, -5.853088573606777450E-16, 4.779409522551257616 ) ) ;
#149 = DATE_AND_TIME ( #153, #198 ) ;
#150 = CIRCLE ( 'NONE', #58, 0.3280370868554645103 ) ;
#151 = AXIS2_PLACEMENT_3D ( 'NONE', #143, #100, #229 ) ;
#152 = SECURITY_CLASSIFICATION_LEVEL ( 'unclassified' ) ;
#153 = CALENDAR_DATE ( 2021, 16, 12 ) ;
#154 = ORIENTED_EDGE ( 'NONE', *, *, #164, .F. ) ;
#155 = AXIS2_PLACEMENT_3D ( 'NONE', #247, #122, #187 ) ;
#156 = DATE_AND_TIME ( #61, #279 ) ;
#157 = AXIS2_PLACEMENT_3D ( 'NONE', #171, #28, #123 ) ;
#158 = EDGE_CURVE ( 'NONE', #249, #249, #116, .T. ) ;
#159 = ORIENTED_EDGE ( 'NONE', *, *, #78, .F. ) ;
#160 = EDGE_LOOP ( 'NONE', ( #66 ) ) ;
#161 = EDGE_LOOP ( 'NONE', ( #163 ) ) ;
#162 = MANIFOLD_SOLID_BREP ( 'Corps-Déplacer/Copier1[1]', #54 ) ;
#163 = ORIENTED_EDGE ( 'NONE', *, *, #78, .T. ) ;
#164 = EDGE_CURVE ( 'NONE', #233, #233, #260, .T. ) ;
#165 = PLANE ( 'NONE',  #82 ) ;
#166 = CARTESIAN_POINT ( 'NONE',  ( 1.396592535537253342E-14, -4.898587196589412829E-16, 4.000000000000000000 ) ) ;
#167 = DIRECTION ( 'NONE',  ( -4.275831445896958607E-31, -1.000000000000000000, -1.224646799147353207E-16 ) ) ;
#168 = APPROVAL ( #207, 'UNSPECIFIED' ) ;
#169 = CARTESIAN_POINT ( 'NONE',  ( 1.042207179644675275E-13, 0.7499999999999962252, 29.84999999999999787 ) ) ;
#170 = VERTEX_POINT ( 'NONE', #236 ) ;
#171 = CARTESIAN_POINT ( 'NONE',  ( 1.047444401652940007E-13, -3.673940397442059178E-15, 30.00000000000000000 ) ) ;
#172 = DIRECTION ( 'NONE',  ( -3.491481338843133355E-15, 1.224646799147353207E-16, -1.000000000000000000 ) ) ;
#173 = CALENDAR_DATE ( 2021, 16, 12 ) ;
#174 = LOCAL_TIME ( 9, 57, 33.00000000000000000, #235 ) ;
#175 = PERSON_AND_ORGANIZATION ( #254, #88 ) ;
#176 = ORIENTED_EDGE ( 'NONE', *, *, #144, .F. ) ;
#177 = CLOSED_SHELL ( 'NONE', ( #46, #18, #23, #231 ) ) ;
#178 = CC_DESIGN_SECURITY_CLASSIFICATION ( #109, ( #5 ) ) ;
#179 = ORIENTED_EDGE ( 'NONE', *, *, #131, .F. ) ;
#180 = DIRECTION ( 'NONE',  ( -3.491481338843133355E-15, 1.224646799147353207E-16, -1.000000000000000000 ) ) ;
#181 = EDGE_CURVE ( 'NONE', #30, #30, #147, .T. ) ;
#182 = APPROVAL_PERSON_ORGANIZATION ( #280, #270, #111 ) ;
#183 = DIRECTION ( 'NONE',  ( 3.491481338843133355E-15, -1.224646799147353207E-16, 1.000000000000000000 ) ) ;
#184 = CARTESIAN_POINT ( 'NONE',  ( 2.218555868924580576E-14, -7.781646470172156061E-16, 6.354196553316467266 ) ) ;
#185 = FACE_OUTER_BOUND ( 'NONE', #2, .T. ) ;
#186 = CONICAL_SURFACE ( 'NONE', #68, 0.3109999999999993325, 0.2617993877991428575 ) ;
#187 = DIRECTION ( 'NONE',  ( 4.275831445896958607E-31, 1.000000000000000000, 1.224646799147352961E-16 ) ) ;
#188 = CARTESIAN_POINT ( 'NONE',  ( 1.396592535537253342E-14, 0.3109999999999992770, 4.000000000000000000 ) ) ;
#189 = CARTESIAN_POINT ( 'NONE',  ( 1.623538822562057010E-14, -5.421010862427522170E-16, 4.649999999999999467 ) ) ;
#190 = FACE_BOUND ( 'NONE', #118, .T. ) ;
#191 = AXIS2_PLACEMENT_3D ( 'NONE', #120, #135, #24 ) ;
#192 = CALENDAR_DATE ( 2021, 16, 12 ) ;
#193 = AXIS2_PLACEMENT_3D ( 'NONE', #13, #3, #225 ) ;
#194 = COORDINATED_UNIVERSAL_TIME_OFFSET ( 1, 0, .AHEAD. ) ;
#195 = EDGE_LOOP ( 'NONE', ( #239 ) ) ;
#196 = AXIS2_PLACEMENT_3D ( 'NONE', #102, #263, #50 ) ;
#197 = ORIENTED_EDGE ( 'NONE', *, *, #144, .T. ) ;
#198 = LOCAL_TIME ( 9, 57, 33.00000000000000000, #40 ) ;
#199 = PRODUCT ( '983633', '983633', '', ( #273 ) ) ;
#200 = FACE_OUTER_BOUND ( 'NONE', #259, .T. ) ;
#201 = DIRECTION ( 'NONE',  ( 0.0000000000000000000, 1.000000000000000000, 0.0000000000000000000 ) ) ;
#202 = ADVANCED_FACE ( 'NONE', ( #208, #12 ), #14, .T. ) ;
#203 = FACE_OUTER_BOUND ( 'NONE', #161, .T. ) ;
#204 = DIRECTION ( 'NONE',  ( 0.0000000000000000000, -1.000000000000000000, 0.0000000000000000000 ) ) ;
#205 = APPROVAL_PERSON_ORGANIZATION ( #175, #71, #129 ) ;
#206 = APPLICATION_CONTEXT ( 'configuration controlled 3d designs of mechanical parts and assemblies' ) ;
#207 = APPROVAL_STATUS ( 'not_yet_approved' ) ;
#208 = FACE_OUTER_BOUND ( 'NONE', #160, .T. ) ;
#209 = DIRECTION ( 'NONE',  ( -3.491481338843133355E-15, 1.224646799147353207E-16, -1.000000000000000000 ) ) ;
#210 = APPROVAL_ROLE ( '' ) ;
#211 = CARTESIAN_POINT ( 'NONE',  ( 1.047444401652940007E-13, -3.673940397442059178E-15, 30.00000000000000000 ) ) ;
#212 = EDGE_CURVE ( 'NONE', #266, #266, #35, .T. ) ;
#213 = ADVANCED_FACE ( 'NONE', ( #121 ), #75, .F. ) ;
#214 = CARTESIAN_POINT ( 'NONE',  ( 1.623538822562057326E-14, 0.3109999999999992770, 4.650000000000000355 ) ) ;
#215 = PERSON_AND_ORGANIZATION_ROLE ( 'classification_officer' ) ;
#216 = PERSON_AND_ORGANIZATION_ROLE ( 'creator' ) ;
#217 = AXIS2_PLACEMENT_3D ( 'NONE', #184, #242, #204 ) ;
#218 = ORIENTED_EDGE ( 'NONE', *, *, #181, .T. ) ;
#219 = FACE_OUTER_BOUND ( 'NONE', #255, .T. ) ;
#220 = CIRCLE ( 'NONE', #137, 0.3109999999999998876 ) ;
#221 = EDGE_LOOP ( 'NONE', ( #223 ) ) ;
#222 = ADVANCED_BREP_SHAPE_REPRESENTATION ( '983633', ( #162, #244, #26 ), #132 ) ;
#223 = ORIENTED_EDGE ( 'NONE', *, *, #131, .T. ) ;
#224 = DIRECTION ( 'NONE',  ( 0.0000000000000000000, 0.0000000000000000000, 1.000000000000000000 ) ) ;
#225 = DIRECTION ( 'NONE',  ( 4.275831445896958607E-31, 1.000000000000000000, 1.224646799147353207E-16 ) ) ;
#226 = DIRECTION ( 'NONE',  ( -3.491481338843133355E-15, 1.224646799147353207E-16, -1.000000000000000000 ) ) ;
#227 = CC_DESIGN_PERSON_AND_ORGANIZATION_ASSIGNMENT ( #264, #127, ( #199 ) ) ;
#228 = DIRECTION ( 'NONE',  ( -3.491481338843133355E-15, 1.224646799147353207E-16, -1.000000000000000000 ) ) ;
#229 = DIRECTION ( 'NONE',  ( 6.192700785811060846E-31, 1.000000000000000000, 1.743090309462229462E-16 ) ) ;
#230 = FACE_OUTER_BOUND ( 'NONE', #64, .T. ) ;
#231 = ADVANCED_FACE ( 'NONE', ( #63 ), #65, .T. ) ;
#232 = DIRECTION ( 'NONE',  ( -3.491481338843133355E-15, 1.224646799147353207E-16, -1.000000000000000000 ) ) ;
#233 = VERTEX_POINT ( 'NONE', #103 ) ;
#234 = DIRECTION ( 'NONE',  ( 4.275831445896958607E-31, 1.000000000000000000, 1.224646799147353207E-16 ) ) ;
#235 = COORDINATED_UNIVERSAL_TIME_OFFSET ( 1, 0, .AHEAD. ) ;
#236 = CARTESIAN_POINT ( 'NONE',  ( 1.396592535537253342E-14, 0.3109999999999992770, 4.000000000000000000 ) ) ;
#237 =( LENGTH_UNIT ( ) NAMED_UNIT ( * ) SI_UNIT ( .MILLI., .METRE. ) );
#238 = PERSON_AND_ORGANIZATION ( #254, #88 ) ;
#239 = ORIENTED_EDGE ( 'NONE', *, *, #110, .F. ) ;
#240 = EDGE_LOOP ( 'NONE', ( #45 ) ) ;
#241 = FACE_OUTER_BOUND ( 'NONE', #92, .T. ) ;
#242 = DIRECTION ( 'NONE',  ( 3.491481338843133355E-15, -1.224646799147353207E-16, 1.000000000000000000 ) ) ;
#243 = FACE_OUTER_BOUND ( 'NONE', #20, .T. ) ;
#244 = MANIFOLD_SOLID_BREP ( 'Corps-Déplacer/Copier1[2]', #177 ) ;
#245 = PLANE ( 'NONE',  #196 ) ;
#246 = ADVANCED_FACE ( 'NONE', ( #219, #1 ), #252, .T. ) ;
#247 = CARTESIAN_POINT ( 'NONE',  ( 0.0000000000000000000, 0.0000000000000000000, 0.0000000000000000000 ) ) ;
#248 = PERSON_AND_ORGANIZATION_ROLE ( 'design_supplier' ) ;
#249 = VERTEX_POINT ( 'NONE', #51 ) ;
#250 = CC_DESIGN_APPROVAL ( #168, ( #90 ) ) ;
#251 = DATE_AND_TIME ( #192, #31 ) ;
#252 = CYLINDRICAL_SURFACE ( 'NONE', #267, 0.7499999999999984457 ) ;
#253 = AXIS2_PLACEMENT_3D ( 'NONE', #269, #228, #49 ) ;
#254 = PERSON ( 'UNSPECIFIED', 'UNSPECIFIED', 'UNSPECIFIED', ('UNSPECIFIED'), ('UNSPECIFIED'), ('UNSPECIFIED') ) ;
#255 = EDGE_LOOP ( 'NONE', ( #159 ) ) ;
#256 = ADVANCED_FACE ( 'NONE', ( #101, #9 ), #19, .F. ) ;
#257 = EDGE_LOOP ( 'NONE', ( #133 ) ) ;
#258 = APPLICATION_PROTOCOL_DEFINITION ( 'international standard', 'config_control_design', 1994, #52 ) ;
#259 = EDGE_LOOP ( 'NONE', ( #283 ) ) ;
#260 = CIRCLE ( 'NONE', #157, 0.6000000000000000888 ) ;
#261 = CARTESIAN_POINT ( 'NONE',  ( 0.0000000000000000000, 0.0000000000000000000, 0.0000000000000000000 ) ) ;
#262 = DIRECTION ( 'NONE',  ( 0.0000000000000000000, 1.000000000000000000, 0.0000000000000000000 ) ) ;
#263 = DIRECTION ( 'NONE',  ( 3.491481338843133355E-15, -1.224646799147353207E-16, 1.000000000000000000 ) ) ;
#264 = PERSON_AND_ORGANIZATION ( #254, #88 ) ;
#265 = DIRECTION ( 'NONE',  ( 3.491481338843133355E-15, -1.224646799147353207E-16, 1.000000000000000000 ) ) ;
#266 = VERTEX_POINT ( 'NONE', #188 ) ;
#267 = AXIS2_PLACEMENT_3D ( 'NONE', #93, #180, #22 ) ;
#268 = APPLICATION_PROTOCOL_DEFINITION ( 'international standard', 'config_control_design', 1994, #206 ) ;
#269 = CARTESIAN_POINT ( 'NONE',  ( 0.0000000000000000000, 0.0000000000000000000, 0.0000000000000000000 ) ) ;
#270 = APPROVAL ( #39, 'UNSPECIFIED' ) ;
#271 = DIRECTION ( 'NONE',  ( -3.491481338843133355E-15, 1.224646799147353207E-16, -1.000000000000000000 ) ) ;
#272 = UNCERTAINTY_MEASURE_WITH_UNIT (LENGTH_MEASURE( 1.000000000000000082E-05 ), #237, 'distance_accuracy_value', 'NONE');
#273 = MECHANICAL_CONTEXT ( 'NONE', #52, 'mechanical' ) ;
#274 = CC_DESIGN_DATE_AND_TIME_ASSIGNMENT ( #281, #108, ( #109 ) ) ;
#275 = AXIS2_PLACEMENT_3D ( 'NONE', #32, #8, #128 ) ;
#276 = CARTESIAN_POINT ( 'NONE',  ( -1.182959891489475711E-31, 0.1899999999999999745, -3.388131789017201356E-17 ) ) ;
#277 = APPROVAL_DATE_TIME ( #251, #71 ) ;
#278 = DATE_TIME_ROLE ( 'creation_date' ) ;
#279 = LOCAL_TIME ( 9, 57, 33.00000000000000000, #84 ) ;
#280 = PERSON_AND_ORGANIZATION ( #254, #88 ) ;
#281 = DATE_AND_TIME ( #37, #174 ) ;
#282 = APPROVAL_DATE_TIME ( #60, #168 ) ;
#283 = ORIENTED_EDGE ( 'NONE', *, *, #158, .T. ) ;
ENDSEC;
END-ISO-10303-21;
