ISO-10303-21;
HEADER;
FILE_DESCRIPTION (( 'STEP AP203' ),
    '1' );
FILE_NAME ('983254.step',
    '2021-11-08T14:12:35',
    ( '' ),
    ( '' ),
    'SwSTEP 2.0',
    'SolidWorks 2019',
    '' );
FILE_SCHEMA (( 'CONFIG_CONTROL_DESIGN' ));
ENDSEC;

DATA;
#1 = APPROVAL_STATUS ( 'not_yet_approved' ) ;
#2 = CC_DESIGN_DATE_AND_TIME_ASSIGNMENT ( #96, #111, ( #35 ) ) ;
#3 = EDGE_LOOP ( 'NONE', ( #5 ) ) ;
#4 = APPROVAL_ROLE ( '' ) ;
#5 = ORIENTED_EDGE ( 'NONE', *, *, #116, .F. ) ;
#6 = ORIENTED_EDGE ( 'NONE', *, *, #79, .T. ) ;
#7 = FACE_OUTER_BOUND ( 'NONE', #3, .T. ) ;
#8 = AXIS2_PLACEMENT_3D ( 'NONE', #32, #210, #38 ) ;
#9 = DIRECTION ( 'NONE',  ( 3.491481338843133355E-15, -1.238606396782300839E-16, 1.000000000000000000 ) ) ;
#10 = AXIS2_PLACEMENT_3D ( 'NONE', #70, #143, #166 ) ;
#11 = DIRECTION ( 'NONE',  ( 0.0000000000000000000, 1.000000000000000000, 0.0000000000000000000 ) ) ;
#12 = CARTESIAN_POINT ( 'NONE',  ( 1.222018468595096801E-13, 1.599999999999995648, 35.00000000000000000 ) ) ;
#13 =( NAMED_UNIT ( * ) SI_UNIT ( $, .STERADIAN. ) SOLID_ANGLE_UNIT ( ) );
#14 = CALENDAR_DATE ( 2021, 8, 11 ) ;
#15 = CALENDAR_DATE ( 2021, 8, 11 ) ;
#16 = ADVANCED_FACE ( 'NONE', ( #80, #48 ), #157, .T. ) ;
#17 = AXIS2_PLACEMENT_3D ( 'NONE', #222, #175, #155 ) ;
#18 = COORDINATED_UNIVERSAL_TIME_OFFSET ( 1, 0, .AHEAD. ) ;
#19 = CC_DESIGN_APPROVAL ( #219, ( #236 ) ) ;
#20 = EDGE_LOOP ( 'NONE', ( #74 ) ) ;
#21 = PRODUCT_DEFINITION_SHAPE ( 'NONE', 'NONE',  #35 ) ;
#22 = APPLICATION_CONTEXT ( 'configuration controlled 3d designs of mechanical parts and assemblies' ) ;
#23 = CARTESIAN_POINT ( 'NONE',  ( 1.530205741815965740E-14, -5.428419734399201770E-16, 4.382683432365083398 ) ) ;
#24 = CC_DESIGN_PERSON_AND_ORGANIZATION_ASSIGNMENT ( #208, #190, ( #35 ) ) ;
#25 = DIRECTION ( 'NONE',  ( 0.0000000000000000000, -1.000000000000000000, 0.0000000000000000000 ) ) ;
#26 = CYLINDRICAL_SURFACE ( 'NONE', #88, 1.999999999999998224 ) ;
#27 = AXIS2_PLACEMENT_3D ( 'NONE', #102, #83, #106 ) ;
#28 = DIRECTION ( 'NONE',  ( 3.491481338843133355E-15, -1.224646799147353454E-16, 1.000000000000000000 ) ) ;
#29 = FACE_OUTER_BOUND ( 'NONE', #131, .T. ) ;
#30 = ADVANCED_FACE ( 'NONE', ( #29, #63 ), #128, .F. ) ;
#31 = VERTEX_POINT ( 'NONE', #68 ) ;
#32 = CARTESIAN_POINT ( 'NONE',  ( 0.0000000000000000000, 0.0000000000000000000, 0.0000000000000000000 ) ) ;
#33 = CARTESIAN_POINT ( 'NONE',  ( -1.297371336161140827E-30, -1.499999999999999556, -3.715819190346901532E-16 ) ) ;
#34 = PERSON_AND_ORGANIZATION_ROLE ( 'creator' ) ;
#35 = PRODUCT_DEFINITION ( 'UNKNOWN', '', #243, #182 ) ;
#36 = DATE_AND_TIME ( #230, #153 ) ;
#37 = EDGE_LOOP ( 'NONE', ( #209 ) ) ;
#38 = DIRECTION ( 'NONE',  ( 1.000000000000000000, 0.0000000000000000000, 0.0000000000000000000 ) ) ;
#39 =( GEOMETRIC_REPRESENTATION_CONTEXT ( 3 ) GLOBAL_UNCERTAINTY_ASSIGNED_CONTEXT ( ( #124 ) ) GLOBAL_UNIT_ASSIGNED_CONTEXT ( ( #161, #91, #13 ) ) REPRESENTATION_CONTEXT ( 'NONE', 'WORKASPACE' ) );
#40 = CLOSED_SHELL ( 'NONE', ( #165, #86, #50, #30, #213, #191 ) ) ;
#41 = CC_DESIGN_PERSON_AND_ORGANIZATION_ASSIGNMENT ( #73, #170, ( #55 ) ) ;
#42 = DIRECTION ( 'NONE',  ( 4.275831445896959482E-31, 1.000000000000000000, 1.224646799147353454E-16 ) ) ;
#43 = CIRCLE ( 'NONE', #47, 1.499999999999999778 ) ;
#44 = FACE_OUTER_BOUND ( 'NONE', #195, .T. ) ;
#45 = CARTESIAN_POINT ( 'NONE',  ( 1.222018468595096801E-13, -4.286263797015737285E-15, 35.00000000000000000 ) ) ;
#46 = CARTESIAN_POINT ( 'NONE',  ( 1.396592535537253342E-14, 1.499759782661854871E-32, 4.000000000000000000 ) ) ;
#47 = AXIS2_PLACEMENT_3D ( 'NONE', #239, #62, #25 ) ;
#48 = FACE_OUTER_BOUND ( 'NONE', #233, .T. ) ;
#49 = CARTESIAN_POINT ( 'NONE',  ( 1.887501497464760607E-14, -1.999999999999999556, 5.406019148566221233 ) ) ;
#50 = ADVANCED_FACE ( 'NONE', ( #7 ), #204, .F. ) ;
#51 = AXIS2_PLACEMENT_3D ( 'NONE', #139, #66, #100 ) ;
#52 = PERSON_AND_ORGANIZATION ( #215, #225 ) ;
#53 = EDGE_LOOP ( 'NONE', ( #196 ) ) ;
#54 = APPROVAL_ROLE ( '' ) ;
#55 = PRODUCT ( '983254', '983254', '', ( #207 ) ) ;
#56 = ORIENTED_EDGE ( 'NONE', *, *, #69, .F. ) ;
#57 = EDGE_LOOP ( 'NONE', ( #99 ) ) ;
#58 = CC_DESIGN_DATE_AND_TIME_ASSIGNMENT ( #92, #167, ( #236 ) ) ;
#59 = AXIS2_PLACEMENT_3D ( 'NONE', #121, #198, #120 ) ;
#60 = LOCAL_TIME ( 15, 12, 35.00000000000000000, #108 ) ;
#61 = PLANE ( 'NONE',  #189 ) ;
#62 = DIRECTION ( 'NONE',  ( 3.491481338843133355E-15, -1.238606396782300839E-16, 1.000000000000000000 ) ) ;
#63 = FACE_OUTER_BOUND ( 'NONE', #57, .T. ) ;
#64 = DIRECTION ( 'NONE',  ( 4.275831445896958607E-31, 1.000000000000000000, 1.224646799147353454E-16 ) ) ;
#65 = EDGE_CURVE ( 'NONE', #31, #31, #95, .T. ) ;
#66 = DIRECTION ( 'NONE',  ( 3.491481338843133355E-15, -1.238606396782300839E-16, 1.000000000000000000 ) ) ;
#67 = CIRCLE ( 'NONE', #146, 1.576120467488710375 ) ;
#68 = CARTESIAN_POINT ( 'NONE',  ( 1.396592535537253342E-14, -1.500000000000000222, 4.000000000000000000 ) ) ;
#69 = EDGE_CURVE ( 'NONE', #162, #162, #194, .T. ) ;
#70 = CARTESIAN_POINT ( 'NONE',  ( 1.887501497464760607E-14, -6.695929898541730014E-16, 5.406019148566221233 ) ) ;
#71 = APPROVAL_DATE_TIME ( #127, #145 ) ;
#72 = APPROVAL_PERSON_ORGANIZATION ( #75, #154, #4 ) ;
#73 = PERSON_AND_ORGANIZATION ( #215, #225 ) ;
#74 = ORIENTED_EDGE ( 'NONE', *, *, #201, .T. ) ;
#75 = PERSON_AND_ORGANIZATION ( #215, #225 ) ;
#76 = EDGE_LOOP ( 'NONE', ( #6 ) ) ;
#77 = ORIENTED_EDGE ( 'NONE', *, *, #118, .T. ) ;
#78 = CONICAL_SURFACE ( 'NONE', #10, 1.999999999999998668, 0.3926990816987175892 ) ;
#79 = EDGE_CURVE ( 'NONE', #185, #185, #67, .T. ) ;
#80 = FACE_OUTER_BOUND ( 'NONE', #20, .T. ) ;
#81 = DIRECTION ( 'NONE',  ( 0.0000000000000000000, -1.000000000000000000, 0.0000000000000000000 ) ) ;
#82 = DIRECTION ( 'NONE',  ( 3.491481338843133355E-15, -1.238606396782300839E-16, 1.000000000000000000 ) ) ;
#83 = DIRECTION ( 'NONE',  ( 3.491481338843133355E-15, -1.238606396782300839E-16, 1.000000000000000000 ) ) ;
#84 = CONICAL_SURFACE ( 'NONE', #203, 1.600000000000000089, 0.7853981633974512766 ) ;
#85 = CARTESIAN_POINT ( 'NONE',  ( -3.206893176761000815E-31, 1.124826709063586741E-32, -9.184907108292241390E-17 ) ) ;
#86 = ADVANCED_FACE ( 'NONE', ( #240, #217 ), #84, .T. ) ;
#87 = CARTESIAN_POINT ( 'NONE',  ( 1.887501497464760607E-14, -6.695929898541730014E-16, 5.406019148566221233 ) ) ;
#88 = AXIS2_PLACEMENT_3D ( 'NONE', #160, #159, #64 ) ;
#89 = FACE_BOUND ( 'NONE', #76, .T. ) ;
#90 = PERSON_AND_ORGANIZATION_ROLE ( 'design_supplier' ) ;
#91 =( NAMED_UNIT ( * ) PLANE_ANGLE_UNIT ( ) SI_UNIT ( $, .RADIAN. ) );
#92 = DATE_AND_TIME ( #15, #164 ) ;
#93 = PERSON_AND_ORGANIZATION ( #215, #225 ) ;
#94 = EDGE_LOOP ( 'NONE', ( #56 ) ) ;
#95 = CIRCLE ( 'NONE', #51, 1.499999999999999778 ) ;
#96 = DATE_AND_TIME ( #163, #101 ) ;
#97 = CC_DESIGN_APPROVAL ( #145, ( #243 ) ) ;
#98 = ADVANCED_FACE ( 'NONE', ( #44 ), #199, .T. ) ;
#99 = ORIENTED_EDGE ( 'NONE', *, *, #79, .F. ) ;
#100 = DIRECTION ( 'NONE',  ( 0.0000000000000000000, -1.000000000000000000, 0.0000000000000000000 ) ) ;
#101 = LOCAL_TIME ( 15, 12, 35.00000000000000000, #18 ) ;
#102 = CARTESIAN_POINT ( 'NONE',  ( -6.413786353522001631E-31, 0.0000000000000000000, -1.836981421658448278E-16 ) ) ;
#103 = CC_DESIGN_PERSON_AND_ORGANIZATION_ASSIGNMENT ( #186, #206, ( #236 ) ) ;
#104 = DIRECTION ( 'NONE',  ( -4.324571120537136967E-31, -1.000000000000000000, -1.238606396782300839E-16 ) ) ;
#105 = DIRECTION ( 'NONE',  ( -4.275831445896959482E-31, -1.000000000000000000, -1.224646799147353454E-16 ) ) ;
#106 = DIRECTION ( 'NONE',  ( -4.324571120537137843E-31, -1.000000000000000000, -1.238606396782301086E-16 ) ) ;
#107 = CARTESIAN_POINT ( 'NONE',  ( 1.530205741815965740E-14, -1.576120467488711041, 4.382683432365083398 ) ) ;
#108 = COORDINATED_UNIVERSAL_TIME_OFFSET ( 1, 0, .AHEAD. ) ;
#109 = FACE_OUTER_BOUND ( 'NONE', #94, .T. ) ;
#110 = COORDINATED_UNIVERSAL_TIME_OFFSET ( 1, 0, .AHEAD. ) ;
#111 = DATE_TIME_ROLE ( 'creation_date' ) ;
#112 = EDGE_CURVE ( 'NONE', #125, #125, #229, .T. ) ;
#113 = APPROVAL_DATE_TIME ( #36, #219 ) ;
#114 = APPLICATION_PROTOCOL_DEFINITION ( 'international standard', 'config_control_design', 1994, #22 ) ;
#115 = ORIENTED_EDGE ( 'NONE', *, *, #65, .T. ) ;
#116 = EDGE_CURVE ( 'NONE', #141, #141, #122, .T. ) ;
#117 = ORIENTED_EDGE ( 'NONE', *, *, #118, .F. ) ;
#118 = EDGE_CURVE ( 'NONE', #126, #126, #43, .T. ) ;
#119 = FACE_OUTER_BOUND ( 'NONE', #53, .T. ) ;
#120 = DIRECTION ( 'NONE',  ( -4.275831445896959482E-31, -1.000000000000000000, -1.224646799147353454E-16 ) ) ;
#121 = CARTESIAN_POINT ( 'NONE',  ( 1.396592535537253342E-14, 1.499759782661854871E-32, 4.000000000000000000 ) ) ;
#122 = CIRCLE ( 'NONE', #17, 1.600000000000000089 ) ;
#123 = DIRECTION ( 'NONE',  ( -3.491481338843133355E-15, 1.224646799147353454E-16, -1.000000000000000000 ) ) ;
#124 = UNCERTAINTY_MEASURE_WITH_UNIT (LENGTH_MEASURE( 1.000000000000000082E-05 ), #161, 'distance_accuracy_value', 'NONE');
#125 = VERTEX_POINT ( 'NONE', #241 ) ;
#126 = VERTEX_POINT ( 'NONE', #224 ) ;
#127 = DATE_AND_TIME ( #14, #60 ) ;
#128 = TOROIDAL_SURFACE ( 'NONE', #158, 2.499999999999999112, 0.9999999999999995559 ) ;
#129 = APPROVAL_STATUS ( 'not_yet_approved' ) ;
#130 = APPROVAL_PERSON_ORGANIZATION ( #184, #145, #54 ) ;
#131 = EDGE_LOOP ( 'NONE', ( #77 ) ) ;
#132 = PRODUCT_RELATED_PRODUCT_CATEGORY ( 'detail', '', ( #55 ) ) ;
#133 = ADVANCED_BREP_SHAPE_REPRESENTATION ( '983254', ( #172, #173, #8 ), #39 ) ;
#134 = DIRECTION ( 'NONE',  ( 3.491481338843133355E-15, -1.224646799147353454E-16, 1.000000000000000000 ) ) ;
#135 = CLOSED_SHELL ( 'NONE', ( #98, #16, #140 ) ) ;
#136 = DIRECTION ( 'NONE',  ( 0.0000000000000000000, -1.000000000000000000, 0.0000000000000000000 ) ) ;
#137 = APPROVAL_PERSON_ORGANIZATION ( #52, #219, #168 ) ;
#138 = FACE_OUTER_BOUND ( 'NONE', #150, .T. ) ;
#139 = CARTESIAN_POINT ( 'NONE',  ( 1.396592535537253342E-14, -4.954425587129203357E-16, 4.000000000000000000 ) ) ;
#140 = ADVANCED_FACE ( 'NONE', ( #237 ), #61, .F. ) ;
#141 = VERTEX_POINT ( 'NONE', #12 ) ;
#142 = COORDINATED_UNIVERSAL_TIME_OFFSET ( 1, 0, .AHEAD. ) ;
#143 = DIRECTION ( 'NONE',  ( 3.491481338843133355E-15, -1.238606396782300839E-16, 1.000000000000000000 ) ) ;
#144 = APPROVAL_DATE_TIME ( #232, #154 ) ;
#145 = APPROVAL ( #227, 'UNSPECIFIED' ) ;
#146 = AXIS2_PLACEMENT_3D ( 'NONE', #23, #156, #81 ) ;
#147 = COORDINATED_UNIVERSAL_TIME_OFFSET ( 1, 0, .AHEAD. ) ;
#148 = APPLICATION_PROTOCOL_DEFINITION ( 'international standard', 'config_control_design', 1994, #151 ) ;
#149 = EDGE_LOOP ( 'NONE', ( #169 ) ) ;
#150 = EDGE_LOOP ( 'NONE', ( #117 ) ) ;
#151 = APPLICATION_CONTEXT ( 'configuration controlled 3d designs of mechanical parts and assemblies' ) ;
#152 = AXIS2_PLACEMENT_3D ( 'NONE', #87, #82, #136 ) ;
#153 = LOCAL_TIME ( 15, 12, 35.00000000000000000, #147 ) ;
#154 = APPROVAL ( #1, 'UNSPECIFIED' ) ;
#155 = DIRECTION ( 'NONE',  ( 0.0000000000000000000, 1.000000000000000000, 0.0000000000000000000 ) ) ;
#156 = DIRECTION ( 'NONE',  ( 3.491481338843133355E-15, -1.238606396782300839E-16, 1.000000000000000000 ) ) ;
#157 = CYLINDRICAL_SURFACE ( 'NONE', #27, 1.499999999999999556 ) ;
#158 = AXIS2_PLACEMENT_3D ( 'NONE', #200, #9, #104 ) ;
#159 = DIRECTION ( 'NONE',  ( -3.491481338843133355E-15, 1.224646799147353454E-16, -1.000000000000000000 ) ) ;
#160 = CARTESIAN_POINT ( 'NONE',  ( 0.0000000000000000000, 0.0000000000000000000, 0.0000000000000000000 ) ) ;
#161 =( LENGTH_UNIT ( ) NAMED_UNIT ( * ) SI_UNIT ( .MILLI., .METRE. ) );
#162 = VERTEX_POINT ( 'NONE', #49 ) ;
#163 = CALENDAR_DATE ( 2021, 8, 11 ) ;
#164 = LOCAL_TIME ( 15, 12, 35.00000000000000000, #110 ) ;
#165 = ADVANCED_FACE ( 'NONE', ( #119, #177 ), #26, .T. ) ;
#166 = DIRECTION ( 'NONE',  ( 0.0000000000000000000, -1.000000000000000000, 0.0000000000000000000 ) ) ;
#167 = DATE_TIME_ROLE ( 'classification_date' ) ;
#168 = APPROVAL_ROLE ( '' ) ;
#169 = ORIENTED_EDGE ( 'NONE', *, *, #69, .T. ) ;
#170 = PERSON_AND_ORGANIZATION_ROLE ( 'design_owner' ) ;
#171 = ORIENTED_EDGE ( 'NONE', *, *, #116, .T. ) ;
#172 = MANIFOLD_SOLID_BREP ( 'Corps-Déplacer/Copier1[1]', #40 ) ;
#173 = MANIFOLD_SOLID_BREP ( 'Corps-Déplacer/Copier1[2]', #135 ) ;
#174 = ORIENTED_EDGE ( 'NONE', *, *, #65, .F. ) ;
#175 = DIRECTION ( 'NONE',  ( -3.491481338843133355E-15, 1.224646799147353454E-16, -1.000000000000000000 ) ) ;
#176 = LOCAL_TIME ( 15, 12, 35.00000000000000000, #142 ) ;
#177 = FACE_OUTER_BOUND ( 'NONE', #149, .T. ) ;
#178 = DIRECTION ( 'NONE',  ( 0.0000000000000000000, 1.000000000000000000, 0.0000000000000000000 ) ) ;
#179 = CARTESIAN_POINT ( 'NONE',  ( -6.486856680805703261E-31, 2.592176958865190330E-34, -1.857909595173450766E-16 ) ) ;
#180 = CC_DESIGN_PERSON_AND_ORGANIZATION_ASSIGNMENT ( #93, #34, ( #243 ) ) ;
#181 = DIRECTION ( 'NONE',  ( -3.491481338843133355E-15, 1.224646799147353454E-16, -1.000000000000000000 ) ) ;
#182 = DESIGN_CONTEXT ( 'detailed design', #151, 'design' ) ;
#183 = DIRECTION ( 'NONE',  ( 3.491481338843133355E-15, -1.238606396782300839E-16, 1.000000000000000000 ) ) ;
#184 = PERSON_AND_ORGANIZATION ( #215, #225 ) ;
#185 = VERTEX_POINT ( 'NONE', #107 ) ;
#186 = PERSON_AND_ORGANIZATION ( #215, #225 ) ;
#187 = CALENDAR_DATE ( 2021, 8, 11 ) ;
#188 = SHAPE_DEFINITION_REPRESENTATION ( #21, #133 ) ;
#189 = AXIS2_PLACEMENT_3D ( 'NONE', #85, #134, #216 ) ;
#190 = PERSON_AND_ORGANIZATION_ROLE ( 'creator' ) ;
#191 = ADVANCED_FACE ( 'NONE', ( #138 ), #220, .F. ) ;
#192 = EDGE_LOOP ( 'NONE', ( #171 ) ) ;
#193 = CC_DESIGN_PERSON_AND_ORGANIZATION_ASSIGNMENT ( #228, #90, ( #243 ) ) ;
#194 = CIRCLE ( 'NONE', #152, 1.999999999999998668 ) ;
#195 = EDGE_LOOP ( 'NONE', ( #115 ) ) ;
#196 = ORIENTED_EDGE ( 'NONE', *, *, #112, .T. ) ;
#197 = AXIS2_PLACEMENT_3D ( 'NONE', #214, #181, #42 ) ;
#198 = DIRECTION ( 'NONE',  ( 3.491481338843133355E-15, -1.224646799147353454E-16, 1.000000000000000000 ) ) ;
#199 = PLANE ( 'NONE',  #59 ) ;
#200 = CARTESIAN_POINT ( 'NONE',  ( 1.396592535537253342E-14, -4.336808689942017736E-16, 4.000000000000000000 ) ) ;
#201 = EDGE_CURVE ( 'NONE', #205, #205, #234, .T. ) ;
#202 = DIRECTION ( 'NONE',  ( -3.491481338843133355E-15, 1.224646799147353454E-16, -1.000000000000000000 ) ) ;
#203 = AXIS2_PLACEMENT_3D ( 'NONE', #45, #123, #11 ) ;
#204 = PLANE ( 'NONE',  #197 ) ;
#205 = VERTEX_POINT ( 'NONE', #33 ) ;
#206 = PERSON_AND_ORGANIZATION_ROLE ( 'classification_officer' ) ;
#207 = MECHANICAL_CONTEXT ( 'NONE', #22, 'mechanical' ) ;
#208 = PERSON_AND_ORGANIZATION ( #215, #225 ) ;
#209 = ORIENTED_EDGE ( 'NONE', *, *, #112, .F. ) ;
#210 = DIRECTION ( 'NONE',  ( 0.0000000000000000000, 0.0000000000000000000, 1.000000000000000000 ) ) ;
#211 = AXIS2_PLACEMENT_3D ( 'NONE', #46, #28, #105 ) ;
#212 = CC_DESIGN_APPROVAL ( #154, ( #35 ) ) ;
#213 = ADVANCED_FACE ( 'NONE', ( #89, #109 ), #78, .T. ) ;
#214 = CARTESIAN_POINT ( 'NONE',  ( 1.222018468595096801E-13, 1.199807826129480202E-32, 35.00000000000000000 ) ) ;
#215 = PERSON ( 'UNSPECIFIED', 'UNSPECIFIED', 'UNSPECIFIED', ('UNSPECIFIED'), ('UNSPECIFIED'), ('UNSPECIFIED') ) ;
#216 = DIRECTION ( 'NONE',  ( -4.275831445896959482E-31, -1.000000000000000000, -1.224646799147353454E-16 ) ) ;
#217 = FACE_BOUND ( 'NONE', #192, .T. ) ;
#218 = CC_DESIGN_SECURITY_CLASSIFICATION ( #236, ( #243 ) ) ;
#219 = APPROVAL ( #129, 'UNSPECIFIED' ) ;
#220 = PLANE ( 'NONE',  #211 ) ;
#221 = EDGE_LOOP ( 'NONE', ( #231 ) ) ;
#222 = CARTESIAN_POINT ( 'NONE',  ( 1.222018468595096801E-13, -4.286263797015737285E-15, 35.00000000000000000 ) ) ;
#223 = AXIS2_PLACEMENT_3D ( 'NONE', #179, #183, #226 ) ;
#224 = CARTESIAN_POINT ( 'NONE',  ( 1.396592535537253342E-14, -1.500000000000000222, 4.000000000000000000 ) ) ;
#225 = ORGANIZATION ( 'UNSPECIFIED', 'UNSPECIFIED', '' ) ;
#226 = DIRECTION ( 'NONE',  ( -4.324571120537137843E-31, -1.000000000000000000, -1.238606396782300839E-16 ) ) ;
#227 = APPROVAL_STATUS ( 'not_yet_approved' ) ;
#228 = PERSON_AND_ORGANIZATION ( #215, #225 ) ;
#229 = CIRCLE ( 'NONE', #235, 2.000000000000000000 ) ;
#230 = CALENDAR_DATE ( 2021, 8, 11 ) ;
#231 = ORIENTED_EDGE ( 'NONE', *, *, #201, .F. ) ;
#232 = DATE_AND_TIME ( #187, #176 ) ;
#233 = EDGE_LOOP ( 'NONE', ( #174 ) ) ;
#234 = CIRCLE ( 'NONE', #223, 1.499999999999999556 ) ;
#235 = AXIS2_PLACEMENT_3D ( 'NONE', #238, #202, #178 ) ;
#236 = SECURITY_CLASSIFICATION ( '', '', #242 ) ;
#237 = FACE_OUTER_BOUND ( 'NONE', #221, .T. ) ;
#238 = CARTESIAN_POINT ( 'NONE',  ( 1.208052543239724267E-13, -4.237277925049843857E-15, 34.60000000000000853 ) ) ;
#239 = CARTESIAN_POINT ( 'NONE',  ( 1.396592535537253342E-14, -4.954425587129203357E-16, 4.000000000000000000 ) ) ;
#240 = FACE_OUTER_BOUND ( 'NONE', #37, .T. ) ;
#241 = CARTESIAN_POINT ( 'NONE',  ( 1.208052543239724267E-13, 1.999999999999995781, 34.60000000000000853 ) ) ;
#242 = SECURITY_CLASSIFICATION_LEVEL ( 'unclassified' ) ;
#243 = PRODUCT_DEFINITION_FORMATION_WITH_SPECIFIED_SOURCE ( 'ANY', '', #55, .NOT_KNOWN. ) ;
ENDSEC;
END-ISO-10303-21;
