ISO-10303-21;
HEADER;
FILE_DESCRIPTION (( 'STEP AP203' ),
    '1' );
FILE_NAME ('983253.step',
    '2021-11-08T14:12:34',
    ( '' ),
    ( '' ),
    'SwSTEP 2.0',
    'SolidWorks 2019',
    '' );
FILE_SCHEMA (( 'CONFIG_CONTROL_DESIGN' ));
ENDSEC;

DATA;
#1 = CARTESIAN_POINT ( 'NONE',  ( 1.396592535537253342E-14, 1.499759782661854871E-32, 4.000000000000000000 ) ) ;
#2 = CC_DESIGN_SECURITY_CLASSIFICATION ( #59, ( #164 ) ) ;
#3 = DIRECTION ( 'NONE',  ( -4.275831445896959482E-31, -1.000000000000000000, -1.224646799147353454E-16 ) ) ;
#4 = CARTESIAN_POINT ( 'NONE',  ( 1.530205741815966055E-14, -5.428419734399202756E-16, 4.382683432365084286 ) ) ;
#5 = CARTESIAN_POINT ( 'NONE',  ( 1.222018468595096801E-13, 1.599999999999995648, 35.00000000000000000 ) ) ;
#6 = TOROIDAL_SURFACE ( 'NONE', #174, 2.000000000000000444, 1.000000000000000444 ) ;
#7 = PERSON ( 'UNSPECIFIED', 'UNSPECIFIED', 'UNSPECIFIED', ('UNSPECIFIED'), ('UNSPECIFIED'), ('UNSPECIFIED') ) ;
#8 = ADVANCED_FACE ( 'NONE', ( #200 ), #72, .T. ) ;
#9 = ORIENTED_EDGE ( 'NONE', *, *, #119, .F. ) ;
#10 = PERSON_AND_ORGANIZATION_ROLE ( 'design_owner' ) ;
#11 = ORIENTED_EDGE ( 'NONE', *, *, #135, .F. ) ;
#12 = ADVANCED_FACE ( 'NONE', ( #149, #33 ), #6, .F. ) ;
#13 = DIRECTION ( 'NONE',  ( 3.491481338843133355E-15, -1.238606396782300839E-16, 1.000000000000000000 ) ) ;
#14 = PERSON_AND_ORGANIZATION ( #7, #99 ) ;
#15 = AXIS2_PLACEMENT_3D ( 'NONE', #206, #114, #94 ) ;
#16 = FACE_BOUND ( 'NONE', #238, .T. ) ;
#17 = SHAPE_DEFINITION_REPRESENTATION ( #107, #117 ) ;
#18 = DATE_TIME_ROLE ( 'creation_date' ) ;
#19 = FACE_OUTER_BOUND ( 'NONE', #63, .T. ) ;
#20 = CARTESIAN_POINT ( 'NONE',  ( 1.208052543239724267E-13, 1.999999999999995781, 34.60000000000000853 ) ) ;
#21 = DIRECTION ( 'NONE',  ( -3.491481338843133355E-15, 1.224646799147353454E-16, -1.000000000000000000 ) ) ;
#22 = CALENDAR_DATE ( 2021, 8, 11 ) ;
#23 = VERTEX_POINT ( 'NONE', #37 ) ;
#24 = DIRECTION ( 'NONE',  ( 3.491481338843133355E-15, -1.224646799147353454E-16, 1.000000000000000000 ) ) ;
#25 = APPROVAL_PERSON_ORGANIZATION ( #83, #241, #122 ) ;
#26 = CC_DESIGN_PERSON_AND_ORGANIZATION_ASSIGNMENT ( #67, #50, ( #79 ) ) ;
#27 = DESIGN_CONTEXT ( 'detailed design', #223, 'design' ) ;
#28 =( GEOMETRIC_REPRESENTATION_CONTEXT ( 3 ) GLOBAL_UNCERTAINTY_ASSIGNED_CONTEXT ( ( #82 ) ) GLOBAL_UNIT_ASSIGNED_CONTEXT ( ( #148, #239, #146 ) ) REPRESENTATION_CONTEXT ( 'NONE', 'WORKASPACE' ) );
#29 = ORIENTED_EDGE ( 'NONE', *, *, #175, .T. ) ;
#30 = DATE_AND_TIME ( #196, #108 ) ;
#31 = APPROVAL_STATUS ( 'not_yet_approved' ) ;
#32 = AXIS2_PLACEMENT_3D ( 'NONE', #151, #132, #77 ) ;
#33 = FACE_OUTER_BOUND ( 'NONE', #178, .T. ) ;
#34 = MANIFOLD_SOLID_BREP ( 'Corps-Déplacer/Copier1[2]', #120 ) ;
#35 = MANIFOLD_SOLID_BREP ( 'Corps-Déplacer/Copier1[1]', #90 ) ;
#36 = FACE_OUTER_BOUND ( 'NONE', #80, .T. ) ;
#37 = CARTESIAN_POINT ( 'NONE',  ( 1.396592535537253342E-14, -1.000000000000000222, 4.000000000000000000 ) ) ;
#38 = AXIS2_PLACEMENT_3D ( 'NONE', #182, #240, #145 ) ;
#39 = CYLINDRICAL_SURFACE ( 'NONE', #115, 1.999999999999998224 ) ;
#40 = FACE_OUTER_BOUND ( 'NONE', #142, .T. ) ;
#41 = CIRCLE ( 'NONE', #15, 0.9999999999999997780 ) ;
#42 = EDGE_CURVE ( 'NONE', #152, #152, #173, .T. ) ;
#43 = APPROVAL_PERSON_ORGANIZATION ( #222, #232, #160 ) ;
#44 = CARTESIAN_POINT ( 'NONE',  ( 1.396592535537253342E-14, -1.000000000000000222, 4.000000000000000000 ) ) ;
#45 = PERSON_AND_ORGANIZATION ( #7, #99 ) ;
#46 = ORIENTED_EDGE ( 'NONE', *, *, #42, .T. ) ;
#47 = CALENDAR_DATE ( 2021, 8, 11 ) ;
#48 = CARTESIAN_POINT ( 'NONE',  ( 2.308960577515150397E-14, -8.191060079318703246E-16, 6.613125929752787791 ) ) ;
#49 = DIRECTION ( 'NONE',  ( -4.324571120537136967E-31, -1.000000000000000000, -1.238606396782300839E-16 ) ) ;
#50 = PERSON_AND_ORGANIZATION_ROLE ( 'creator' ) ;
#51 = CC_DESIGN_PERSON_AND_ORGANIZATION_ASSIGNMENT ( #219, #124, ( #59 ) ) ;
#52 = CONICAL_SURFACE ( 'NONE', #189, 1.999999999999998668, 0.3926990816987180888 ) ;
#53 = PLANE ( 'NONE',  #97 ) ;
#54 = APPROVAL_ROLE ( '' ) ;
#55 = DIRECTION ( 'NONE',  ( 3.491481338843133355E-15, -1.238606396782300839E-16, 1.000000000000000000 ) ) ;
#56 = DIRECTION ( 'NONE',  ( 0.0000000000000000000, -1.000000000000000000, 0.0000000000000000000 ) ) ;
#57 = ADVANCED_FACE ( 'NONE', ( #19, #16 ), #138, .T. ) ;
#58 = CARTESIAN_POINT ( 'NONE',  ( 1.222018468595096801E-13, 1.199807826129480202E-32, 35.00000000000000000 ) ) ;
#59 = SECURITY_CLASSIFICATION ( '', '', #144 ) ;
#60 = VERTEX_POINT ( 'NONE', #136 ) ;
#61 = ADVANCED_FACE ( 'NONE', ( #127 ), #53, .F. ) ;
#62 = AXIS2_PLACEMENT_3D ( 'NONE', #131, #118, #96 ) ;
#63 = EDGE_LOOP ( 'NONE', ( #195 ) ) ;
#64 = APPLICATION_PROTOCOL_DEFINITION ( 'international standard', 'config_control_design', 1994, #223 ) ;
#65 = CALENDAR_DATE ( 2021, 8, 11 ) ;
#66 = ORIENTED_EDGE ( 'NONE', *, *, #71, .F. ) ;
#67 = PERSON_AND_ORGANIZATION ( #7, #99 ) ;
#68 = AXIS2_PLACEMENT_3D ( 'NONE', #48, #125, #89 ) ;
#69 = DIRECTION ( 'NONE',  ( -3.491481338843133355E-15, 1.224646799147353454E-16, -1.000000000000000000 ) ) ;
#70 = DIRECTION ( 'NONE',  ( 3.491481338843133355E-15, -1.224646799147353454E-16, 1.000000000000000000 ) ) ;
#71 = EDGE_CURVE ( 'NONE', #228, #228, #156, .T. ) ;
#72 = PLANE ( 'NONE',  #86 ) ;
#73 = FACE_OUTER_BOUND ( 'NONE', #102, .T. ) ;
#74 = APPROVAL_PERSON_ORGANIZATION ( #104, #105, #54 ) ;
#75 = FACE_BOUND ( 'NONE', #166, .T. ) ;
#76 = PLANE ( 'NONE',  #208 ) ;
#77 = DIRECTION ( 'NONE',  ( 0.0000000000000000000, -1.000000000000000000, 0.0000000000000000000 ) ) ;
#78 = CIRCLE ( 'NONE', #159, 1.076120467488711041 ) ;
#79 = PRODUCT_DEFINITION ( 'UNKNOWN', '', #164, #27 ) ;
#80 = EDGE_LOOP ( 'NONE', ( #234 ) ) ;
#81 = ORIENTED_EDGE ( 'NONE', *, *, #157, .F. ) ;
#82 = UNCERTAINTY_MEASURE_WITH_UNIT (LENGTH_MEASURE( 1.000000000000000082E-05 ), #148, 'distance_accuracy_value', 'NONE');
#83 = PERSON_AND_ORGANIZATION ( #7, #99 ) ;
#84 = CARTESIAN_POINT ( 'NONE',  ( 0.0000000000000000000, 0.0000000000000000000, 0.0000000000000000000 ) ) ;
#85 = DIRECTION ( 'NONE',  ( 3.491481338843133355E-15, -1.224646799147353454E-16, 1.000000000000000000 ) ) ;
#86 = AXIS2_PLACEMENT_3D ( 'NONE', #1, #70, #168 ) ;
#87 = DATE_TIME_ROLE ( 'classification_date' ) ;
#88 = ADVANCED_FACE ( 'NONE', ( #224, #110 ), #197, .T. ) ;
#89 = DIRECTION ( 'NONE',  ( 0.0000000000000000000, -1.000000000000000000, 0.0000000000000000000 ) ) ;
#90 = CLOSED_SHELL ( 'NONE', ( #169, #57, #198, #12, #98, #61 ) ) ;
#91 = CC_DESIGN_DATE_AND_TIME_ASSIGNMENT ( #129, #18, ( #79 ) ) ;
#92 = COORDINATED_UNIVERSAL_TIME_OFFSET ( 1, 0, .AHEAD. ) ;
#93 = ORIENTED_EDGE ( 'NONE', *, *, #175, .F. ) ;
#94 = DIRECTION ( 'NONE',  ( 0.0000000000000000000, -1.000000000000000000, 0.0000000000000000000 ) ) ;
#95 = DIRECTION ( 'NONE',  ( 3.491481338843133355E-15, -1.238606396782300839E-16, 1.000000000000000000 ) ) ;
#96 = DIRECTION ( 'NONE',  ( -4.324571120537136091E-31, -1.000000000000000000, -1.238606396782300839E-16 ) ) ;
#97 = AXIS2_PLACEMENT_3D ( 'NONE', #220, #85, #242 ) ;
#98 = ADVANCED_FACE ( 'NONE', ( #75, #73 ), #52, .T. ) ;
#99 = ORGANIZATION ( 'UNSPECIFIED', 'UNSPECIFIED', '' ) ;
#100 = ORIENTED_EDGE ( 'NONE', *, *, #71, .T. ) ;
#101 = CC_DESIGN_APPROVAL ( #105, ( #59 ) ) ;
#102 = EDGE_LOOP ( 'NONE', ( #66 ) ) ;
#103 = VERTEX_POINT ( 'NONE', #20 ) ;
#104 = PERSON_AND_ORGANIZATION ( #7, #99 ) ;
#105 = APPROVAL ( #113, 'UNSPECIFIED' ) ;
#106 = CARTESIAN_POINT ( 'NONE',  ( 1.396592535537253342E-14, -4.336808689942017736E-16, 4.000000000000000000 ) ) ;
#107 = PRODUCT_DEFINITION_SHAPE ( 'NONE', 'NONE',  #79 ) ;
#108 = LOCAL_TIME ( 15, 12, 34.00000000000000000, #92 ) ;
#109 = PERSON_AND_ORGANIZATION_ROLE ( 'design_supplier' ) ;
#110 = FACE_OUTER_BOUND ( 'NONE', #121, .T. ) ;
#111 = DIRECTION ( 'NONE',  ( 1.000000000000000000, 0.0000000000000000000, 0.0000000000000000000 ) ) ;
#112 = DIRECTION ( 'NONE',  ( -3.491481338843133355E-15, 1.224646799147353454E-16, -1.000000000000000000 ) ) ;
#113 = APPROVAL_STATUS ( 'not_yet_approved' ) ;
#114 = DIRECTION ( 'NONE',  ( 3.491481338843133355E-15, -1.238606396782300839E-16, 1.000000000000000000 ) ) ;
#115 = AXIS2_PLACEMENT_3D ( 'NONE', #226, #21, #191 ) ;
#116 = DIRECTION ( 'NONE',  ( 0.0000000000000000000, 1.000000000000000000, 0.0000000000000000000 ) ) ;
#117 = ADVANCED_BREP_SHAPE_REPRESENTATION ( '983253', ( #35, #34, #150 ), #28 ) ;
#118 = DIRECTION ( 'NONE',  ( 3.491481338843133355E-15, -1.238606396782300839E-16, 1.000000000000000000 ) ) ;
#119 = EDGE_CURVE ( 'NONE', #60, #60, #192, .T. ) ;
#120 = CLOSED_SHELL ( 'NONE', ( #8, #88, #221 ) ) ;
#121 = EDGE_LOOP ( 'NONE', ( #11 ) ) ;
#122 = APPROVAL_ROLE ( '' ) ;
#123 = CC_DESIGN_PERSON_AND_ORGANIZATION_ASSIGNMENT ( #225, #10, ( #235 ) ) ;
#124 = PERSON_AND_ORGANIZATION_ROLE ( 'classification_officer' ) ;
#125 = DIRECTION ( 'NONE',  ( 3.491481338843133355E-15, -1.238606396782300839E-16, 1.000000000000000000 ) ) ;
#126 = DIRECTION ( 'NONE',  ( 0.0000000000000000000, 0.0000000000000000000, 1.000000000000000000 ) ) ;
#127 = FACE_OUTER_BOUND ( 'NONE', #216, .T. ) ;
#128 = CIRCLE ( 'NONE', #233, 2.000000000000000000 ) ;
#129 = DATE_AND_TIME ( #47, #155 ) ;
#130 = CARTESIAN_POINT ( 'NONE',  ( 1.208052543239724267E-13, -4.237277925049843857E-15, 34.60000000000000853 ) ) ;
#131 = CARTESIAN_POINT ( 'NONE',  ( -4.324571120537134339E-31, -7.411511334863653848E-33, -1.238606396782300346E-16 ) ) ;
#132 = DIRECTION ( 'NONE',  ( 3.491481338843133355E-15, -1.238606396782300839E-16, 1.000000000000000000 ) ) ;
#133 = CC_DESIGN_APPROVAL ( #241, ( #79 ) ) ;
#134 = LOCAL_TIME ( 15, 12, 34.00000000000000000, #199 ) ;
#135 = EDGE_CURVE ( 'NONE', #23, #23, #201, .T. ) ;
#136 = CARTESIAN_POINT ( 'NONE',  ( -8.649142241074268679E-31, -0.9999999999999995559, -2.477212793564600693E-16 ) ) ;
#137 = CC_DESIGN_DATE_AND_TIME_ASSIGNMENT ( #30, #87, ( #59 ) ) ;
#138 = CONICAL_SURFACE ( 'NONE', #230, 1.600000000000000089, 0.7853981633974512766 ) ;
#139 = CC_DESIGN_PERSON_AND_ORGANIZATION_ASSIGNMENT ( #14, #109, ( #164 ) ) ;
#140 = EDGE_LOOP ( 'NONE', ( #218 ) ) ;
#141 = APPROVAL_DATE_TIME ( #181, #232 ) ;
#142 = EDGE_LOOP ( 'NONE', ( #100 ) ) ;
#143 = AXIS2_PLACEMENT_3D ( 'NONE', #227, #55, #171 ) ;
#144 = SECURITY_CLASSIFICATION_LEVEL ( 'unclassified' ) ;
#145 = DIRECTION ( 'NONE',  ( 0.0000000000000000000, 1.000000000000000000, 0.0000000000000000000 ) ) ;
#146 =( NAMED_UNIT ( * ) SI_UNIT ( $, .STERADIAN. ) SOLID_ANGLE_UNIT ( ) );
#147 = CARTESIAN_POINT ( 'NONE',  ( 1.222018468595096801E-13, -4.286263797015737285E-15, 35.00000000000000000 ) ) ;
#148 =( LENGTH_UNIT ( ) NAMED_UNIT ( * ) SI_UNIT ( .MILLI., .METRE. ) );
#149 = FACE_OUTER_BOUND ( 'NONE', #236, .T. ) ;
#150 = AXIS2_PLACEMENT_3D ( 'NONE', #84, #126, #111 ) ;
#151 = CARTESIAN_POINT ( 'NONE',  ( 1.396592535537253342E-14, -4.954425587129203357E-16, 4.000000000000000000 ) ) ;
#152 = VERTEX_POINT ( 'NONE', #5 ) ;
#153 = DIRECTION ( 'NONE',  ( 3.491481338843133355E-15, -1.238606396782300839E-16, 1.000000000000000000 ) ) ;
#154 = CARTESIAN_POINT ( 'NONE',  ( 2.308960577515150397E-14, -1.999999999999999556, 6.613125929752787791 ) ) ;
#155 = LOCAL_TIME ( 15, 12, 34.00000000000000000, #179 ) ;
#156 = CIRCLE ( 'NONE', #68, 1.999999999999998668 ) ;
#157 = EDGE_CURVE ( 'NONE', #211, #211, #78, .T. ) ;
#158 = EDGE_LOOP ( 'NONE', ( #180 ) ) ;
#159 = AXIS2_PLACEMENT_3D ( 'NONE', #4, #153, #209 ) ;
#160 = APPROVAL_ROLE ( '' ) ;
#161 = EDGE_LOOP ( 'NONE', ( #9 ) ) ;
#162 = PERSON_AND_ORGANIZATION_ROLE ( 'creator' ) ;
#163 = EDGE_LOOP ( 'NONE', ( #214 ) ) ;
#164 = PRODUCT_DEFINITION_FORMATION_WITH_SPECIFIED_SOURCE ( 'ANY', '', #235, .NOT_KNOWN. ) ;
#165 = APPROVAL_DATE_TIME ( #167, #241 ) ;
#166 = EDGE_LOOP ( 'NONE', ( #176 ) ) ;
#167 = DATE_AND_TIME ( #217, #134 ) ;
#168 = DIRECTION ( 'NONE',  ( -4.275831445896959482E-31, -1.000000000000000000, -1.224646799147353454E-16 ) ) ;
#169 = ADVANCED_FACE ( 'NONE', ( #231, #40 ), #39, .T. ) ;
#170 = PLANE ( 'NONE',  #194 ) ;
#171 = DIRECTION ( 'NONE',  ( -4.324571120537136091E-31, -1.000000000000000000, -1.238606396782300839E-16 ) ) ;
#172 = FACE_OUTER_BOUND ( 'NONE', #161, .T. ) ;
#173 = CIRCLE ( 'NONE', #38, 1.600000000000000089 ) ;
#174 = AXIS2_PLACEMENT_3D ( 'NONE', #106, #13, #49 ) ;
#175 = EDGE_CURVE ( 'NONE', #203, #203, #41, .T. ) ;
#176 = ORIENTED_EDGE ( 'NONE', *, *, #157, .T. ) ;
#177 = CC_DESIGN_APPROVAL ( #232, ( #164 ) ) ;
#178 = EDGE_LOOP ( 'NONE', ( #81 ) ) ;
#179 = COORDINATED_UNIVERSAL_TIME_OFFSET ( 1, 0, .AHEAD. ) ;
#180 = ORIENTED_EDGE ( 'NONE', *, *, #119, .T. ) ;
#181 = DATE_AND_TIME ( #65, #213 ) ;
#182 = CARTESIAN_POINT ( 'NONE',  ( 1.222018468595096801E-13, -4.286263797015737285E-15, 35.00000000000000000 ) ) ;
#183 = APPLICATION_PROTOCOL_DEFINITION ( 'international standard', 'config_control_design', 1994, #210 ) ;
#184 = CC_DESIGN_PERSON_AND_ORGANIZATION_ASSIGNMENT ( #45, #162, ( #164 ) ) ;
#185 = DIRECTION ( 'NONE',  ( 0.0000000000000000000, 1.000000000000000000, 0.0000000000000000000 ) ) ;
#186 = EDGE_CURVE ( 'NONE', #103, #103, #128, .T. ) ;
#187 = CARTESIAN_POINT ( 'NONE',  ( 1.530205741815966055E-14, -1.076120467488711707, 4.382683432365084286 ) ) ;
#188 = DIRECTION ( 'NONE',  ( 4.275831445896959482E-31, 1.000000000000000000, 1.224646799147353454E-16 ) ) ;
#189 = AXIS2_PLACEMENT_3D ( 'NONE', #229, #95, #56 ) ;
#190 = CARTESIAN_POINT ( 'NONE',  ( -3.206893176761000815E-31, 1.124826709063586741E-32, -9.184907108292241390E-17 ) ) ;
#191 = DIRECTION ( 'NONE',  ( 4.275831445896958607E-31, 1.000000000000000000, 1.224646799147353454E-16 ) ) ;
#192 = CIRCLE ( 'NONE', #62, 0.9999999999999995559 ) ;
#193 = PRODUCT_RELATED_PRODUCT_CATEGORY ( 'detail', '', ( #235 ) ) ;
#194 = AXIS2_PLACEMENT_3D ( 'NONE', #190, #24, #3 ) ;
#195 = ORIENTED_EDGE ( 'NONE', *, *, #186, .F. ) ;
#196 = CALENDAR_DATE ( 2021, 8, 11 ) ;
#197 = CYLINDRICAL_SURFACE ( 'NONE', #143, 0.9999999999999995559 ) ;
#198 = ADVANCED_FACE ( 'NONE', ( #36 ), #76, .F. ) ;
#199 = COORDINATED_UNIVERSAL_TIME_OFFSET ( 1, 0, .AHEAD. ) ;
#200 = FACE_OUTER_BOUND ( 'NONE', #140, .T. ) ;
#201 = CIRCLE ( 'NONE', #32, 0.9999999999999997780 ) ;
#202 = APPROVAL_DATE_TIME ( #207, #105 ) ;
#203 = VERTEX_POINT ( 'NONE', #44 ) ;
#204 = DIRECTION ( 'NONE',  ( -3.491481338843133355E-15, 1.224646799147353454E-16, -1.000000000000000000 ) ) ;
#205 = COORDINATED_UNIVERSAL_TIME_OFFSET ( 1, 0, .AHEAD. ) ;
#206 = CARTESIAN_POINT ( 'NONE',  ( 1.396592535537253342E-14, -4.954425587129203357E-16, 4.000000000000000000 ) ) ;
#207 = DATE_AND_TIME ( #22, #212 ) ;
#208 = AXIS2_PLACEMENT_3D ( 'NONE', #58, #112, #188 ) ;
#209 = DIRECTION ( 'NONE',  ( 0.0000000000000000000, -1.000000000000000000, 0.0000000000000000000 ) ) ;
#210 = APPLICATION_CONTEXT ( 'configuration controlled 3d designs of mechanical parts and assemblies' ) ;
#211 = VERTEX_POINT ( 'NONE', #187 ) ;
#212 = LOCAL_TIME ( 15, 12, 34.00000000000000000, #205 ) ;
#213 = LOCAL_TIME ( 15, 12, 34.00000000000000000, #237 ) ;
#214 = ORIENTED_EDGE ( 'NONE', *, *, #186, .T. ) ;
#215 = APPROVAL_STATUS ( 'not_yet_approved' ) ;
#216 = EDGE_LOOP ( 'NONE', ( #93 ) ) ;
#217 = CALENDAR_DATE ( 2021, 8, 11 ) ;
#218 = ORIENTED_EDGE ( 'NONE', *, *, #135, .T. ) ;
#219 = PERSON_AND_ORGANIZATION ( #7, #99 ) ;
#220 = CARTESIAN_POINT ( 'NONE',  ( 1.396592535537253342E-14, 1.499759782661854871E-32, 4.000000000000000000 ) ) ;
#221 = ADVANCED_FACE ( 'NONE', ( #172 ), #170, .F. ) ;
#222 = PERSON_AND_ORGANIZATION ( #7, #99 ) ;
#223 = APPLICATION_CONTEXT ( 'configuration controlled 3d designs of mechanical parts and assemblies' ) ;
#224 = FACE_OUTER_BOUND ( 'NONE', #158, .T. ) ;
#225 = PERSON_AND_ORGANIZATION ( #7, #99 ) ;
#226 = CARTESIAN_POINT ( 'NONE',  ( 0.0000000000000000000, 0.0000000000000000000, 0.0000000000000000000 ) ) ;
#227 = CARTESIAN_POINT ( 'NONE',  ( -6.413786353522001631E-31, 0.0000000000000000000, -1.836981421658448278E-16 ) ) ;
#228 = VERTEX_POINT ( 'NONE', #154 ) ;
#229 = CARTESIAN_POINT ( 'NONE',  ( 2.308960577515150397E-14, -8.191060079318703246E-16, 6.613125929752787791 ) ) ;
#230 = AXIS2_PLACEMENT_3D ( 'NONE', #147, #69, #185 ) ;
#231 = FACE_OUTER_BOUND ( 'NONE', #163, .T. ) ;
#232 = APPROVAL ( #31, 'UNSPECIFIED' ) ;
#233 = AXIS2_PLACEMENT_3D ( 'NONE', #130, #204, #116 ) ;
#234 = ORIENTED_EDGE ( 'NONE', *, *, #42, .F. ) ;
#235 = PRODUCT ( '983253', '983253', '', ( #243 ) ) ;
#236 = EDGE_LOOP ( 'NONE', ( #29 ) ) ;
#237 = COORDINATED_UNIVERSAL_TIME_OFFSET ( 1, 0, .AHEAD. ) ;
#238 = EDGE_LOOP ( 'NONE', ( #46 ) ) ;
#239 =( NAMED_UNIT ( * ) PLANE_ANGLE_UNIT ( ) SI_UNIT ( $, .RADIAN. ) );
#240 = DIRECTION ( 'NONE',  ( -3.491481338843133355E-15, 1.224646799147353454E-16, -1.000000000000000000 ) ) ;
#241 = APPROVAL ( #215, 'UNSPECIFIED' ) ;
#242 = DIRECTION ( 'NONE',  ( -4.275831445896959482E-31, -1.000000000000000000, -1.224646799147353454E-16 ) ) ;
#243 = MECHANICAL_CONTEXT ( 'NONE', #210, 'mechanical' ) ;
ENDSEC;
END-ISO-10303-21;
