ISO-10303-21;
HEADER;
FILE_DESCRIPTION (( 'STEP AP203' ),
    '1' );
FILE_NAME ('983252.step',
    '2021-11-08T14:12:33',
    ( '' ),
    ( '' ),
    'SwSTEP 2.0',
    'SolidWorks 2019',
    '' );
FILE_SCHEMA (( 'CONFIG_CONTROL_DESIGN' ));
ENDSEC;

DATA;
#1 = CIRCLE ( 'NONE', #83, 0.8261204674887132615 ) ;
#2 = ADVANCED_FACE ( 'NONE', ( #150 ), #222, .T. ) ;
#3 = ORIENTED_EDGE ( 'NONE', *, *, #170, .F. ) ;
#4 = CC_DESIGN_PERSON_AND_ORGANIZATION_ASSIGNMENT ( #130, #35, ( #261 ) ) ;
#5 = ORIENTED_EDGE ( 'NONE', *, *, #215, .T. ) ;
#6 = APPLICATION_CONTEXT ( 'configuration controlled 3d designs of mechanical parts and assemblies' ) ;
#7 = APPROVAL ( #207, 'UNSPECIFIED' ) ;
#8 = APPROVAL_STATUS ( 'not_yet_approved' ) ;
#9 = AXIS2_PLACEMENT_3D ( 'NONE', #262, #45, #39 ) ;
#10 = CARTESIAN_POINT ( 'NONE',  ( -3.137680214051083503E-31, 1.076803961061279350E-32, -8.986673304376650883E-17 ) ) ;
#11 = APPROVAL_DATE_TIME ( #33, #233 ) ;
#12 = AXIS2_PLACEMENT_3D ( 'NONE', #51, #78, #254 ) ;
#13 = CARTESIAN_POINT ( 'NONE',  ( 8.728703347107831810E-15, -5.421010862427531045E-16, 2.499999999999999556 ) ) ;
#14 = VERTEX_POINT ( 'NONE', #136 ) ;
#15 = COORDINATED_UNIVERSAL_TIME_OFFSET ( 1, 0, .AHEAD. ) ;
#16 = CARTESIAN_POINT ( 'NONE',  ( 8.728703347107831810E-15, -5.421010862427531045E-16, 2.499999999999999556 ) ) ;
#17 = MANIFOLD_SOLID_BREP ( 'Corps-Déplacer/Copier1[1]', #231 ) ;
#18 = FACE_OUTER_BOUND ( 'NONE', #132, .T. ) ;
#19 = DIRECTION ( 'NONE',  ( 3.491481338843133355E-15, -1.198223107250220118E-16, 1.000000000000000000 ) ) ;
#20 = CYLINDRICAL_SURFACE ( 'NONE', #50, 0.7500000000000000000 ) ;
#21 = CARTESIAN_POINT ( 'NONE',  ( 1.208052543239724267E-13, -4.237277925049843857E-15, 34.60000000000000853 ) ) ;
#22 = FACE_OUTER_BOUND ( 'NONE', #124, .T. ) ;
#23 = FACE_OUTER_BOUND ( 'NONE', #185, .T. ) ;
#24 = CC_DESIGN_APPROVAL ( #233, ( #225 ) ) ;
#25 = CARTESIAN_POINT ( 'NONE',  ( 0.0000000000000000000, 0.0000000000000000000, 0.0000000000000000000 ) ) ;
#26 = ORIENTED_EDGE ( 'NONE', *, *, #122, .F. ) ;
#27 = CONICAL_SURFACE ( 'NONE', #80, 1.600000000000000089, 0.7853981633974512766 ) ;
#28 = EDGE_LOOP ( 'NONE', ( #219 ) ) ;
#29 = APPROVAL_PERSON_ORGANIZATION ( #251, #92, #131 ) ;
#30 = VERTEX_POINT ( 'NONE', #157 ) ;
#31 = PERSON_AND_ORGANIZATION_ROLE ( 'design_supplier' ) ;
#32 = CARTESIAN_POINT ( 'NONE',  ( 8.728703347107828655E-15, -0.7500000000000004441, 2.499999999999998668 ) ) ;
#33 = DATE_AND_TIME ( #156, #303 ) ;
#34 = CC_DESIGN_PERSON_AND_ORGANIZATION_ASSIGNMENT ( #60, #31, ( #246 ) ) ;
#35 = PERSON_AND_ORGANIZATION_ROLE ( 'design_owner' ) ;
#36 = MECHANICAL_CONTEXT ( 'NONE', #6, 'mechanical' ) ;
#37 = CIRCLE ( 'NONE', #117, 2.000000000000000000 ) ;
#38 = PRODUCT_DEFINITION_SHAPE ( 'NONE', 'NONE',  #225 ) ;
#39 = DIRECTION ( 'NONE',  ( -4.280138325655721436E-31, -1.000000000000000000, -1.198223107250220118E-16 ) ) ;
#40 = FACE_BOUND ( 'NONE', #48, .T. ) ;
#41 = DIRECTION ( 'NONE',  ( 3.491481338843133355E-15, -1.198223107250220118E-16, 1.000000000000000000 ) ) ;
#42 = DIRECTION ( 'NONE',  ( -3.491481338843133355E-15, 1.224646799147353454E-16, -1.000000000000000000 ) ) ;
#43 = AXIS2_PLACEMENT_3D ( 'NONE', #25, #118, #220 ) ;
#44 = ADVANCED_FACE ( 'NONE', ( #298 ), #81, .F. ) ;
#45 = DIRECTION ( 'NONE',  ( 3.491481338843133355E-15, -1.198223107250220118E-16, 1.000000000000000000 ) ) ;
#46 = CC_DESIGN_PERSON_AND_ORGANIZATION_ASSIGNMENT ( #198, #74, ( #151 ) ) ;
#47 = FACE_OUTER_BOUND ( 'NONE', #121, .T. ) ;
#48 = EDGE_LOOP ( 'NONE', ( #102 ) ) ;
#49 = AXIS2_PLACEMENT_3D ( 'NONE', #271, #276, #250 ) ;
#50 = AXIS2_PLACEMENT_3D ( 'NONE', #138, #281, #188 ) ;
#51 = CARTESIAN_POINT ( 'NONE',  ( 1.574508836663475244E-14, -5.403474020241930906E-16, 4.509572539159474758 ) ) ;
#52 = CIRCLE ( 'NONE', #172, 1.633974596215563402 ) ;
#53 = FACE_OUTER_BOUND ( 'NONE', #28, .T. ) ;
#54 = EDGE_LOOP ( 'NONE', ( #70 ) ) ;
#55 = DIRECTION ( 'NONE',  ( 0.0000000000000000000, -1.000000000000000000, 0.0000000000000000000 ) ) ;
#56 = EDGE_CURVE ( 'NONE', #30, #30, #1, .T. ) ;
#57 = PERSON_AND_ORGANIZATION ( #103, #64 ) ;
#58 = DIRECTION ( 'NONE',  ( 3.491481338843133355E-15, -1.224646799147353454E-16, 1.000000000000000000 ) ) ;
#59 = DESIGN_CONTEXT ( 'detailed design', #275, 'design' ) ;
#60 = PERSON_AND_ORGANIZATION ( #103, #64 ) ;
#61 = DIRECTION ( 'NONE',  ( 3.491481338843133355E-15, -1.224646799147353454E-16, 1.000000000000000000 ) ) ;
#62 = FACE_OUTER_BOUND ( 'NONE', #154, .T. ) ;
#63 = DIRECTION ( 'NONE',  ( 3.491481338843133355E-15, -1.198223107250220118E-16, 1.000000000000000000 ) ) ;
#64 = ORGANIZATION ( 'UNSPECIFIED', 'UNSPECIFIED', '' ) ;
#65 = DIRECTION ( 'NONE',  ( 3.491481338843133355E-15, -1.198223107250220118E-16, 1.000000000000000000 ) ) ;
#66 = CIRCLE ( 'NONE', #266, 1.999999999999999112 ) ;
#67 = FACE_OUTER_BOUND ( 'NONE', #54, .T. ) ;
#68 = ADVANCED_FACE ( 'NONE', ( #67, #47 ), #264, .T. ) ;
#69 = AXIS2_PLACEMENT_3D ( 'NONE', #98, #200, #291 ) ;
#70 = ORIENTED_EDGE ( 'NONE', *, *, #122, .T. ) ;
#71 = ORIENTED_EDGE ( 'NONE', *, *, #260, .F. ) ;
#72 = EDGE_LOOP ( 'NONE', ( #199 ) ) ;
#73 = TOROIDAL_SURFACE ( 'NONE', #9, 1.750000000000000000, 1.000000000000000000 ) ;
#74 = PERSON_AND_ORGANIZATION_ROLE ( 'classification_officer' ) ;
#75 = LOCAL_TIME ( 15, 12, 33.00000000000000000, #99 ) ;
#76 = COORDINATED_UNIVERSAL_TIME_OFFSET ( 1, 0, .AHEAD. ) ;
#77 = AXIS2_PLACEMENT_3D ( 'NONE', #301, #85, #302 ) ;
#78 = DIRECTION ( 'NONE',  ( 3.491481338843133355E-15, -1.198223107250220118E-16, 1.000000000000000000 ) ) ;
#79 = EDGE_CURVE ( 'NONE', #126, #126, #66, .T. ) ;
#80 = AXIS2_PLACEMENT_3D ( 'NONE', #190, #42, #191 ) ;
#81 = PLANE ( 'NONE',  #205 ) ;
#82 = PLANE ( 'NONE',  #115 ) ;
#83 = AXIS2_PLACEMENT_3D ( 'NONE', #236, #19, #189 ) ;
#84 = CARTESIAN_POINT ( 'NONE',  ( 1.574508836663475244E-14, -5.403474020241930906E-16, 4.509572539159474758 ) ) ;
#85 = DIRECTION ( 'NONE',  ( 3.491481338843133355E-15, -1.198223107250220118E-16, 1.000000000000000000 ) ) ;
#86 = DIRECTION ( 'NONE',  ( 0.0000000000000000000, -1.000000000000000000, 0.0000000000000000000 ) ) ;
#87 = AXIS2_PLACEMENT_3D ( 'NONE', #282, #65, #239 ) ;
#88 = EDGE_LOOP ( 'NONE', ( #145 ) ) ;
#89 = CC_DESIGN_PERSON_AND_ORGANIZATION_ASSIGNMENT ( #201, #277, ( #246 ) ) ;
#90 = ORIENTED_EDGE ( 'NONE', *, *, #294, .T. ) ;
#91 = EDGE_LOOP ( 'NONE', ( #71 ) ) ;
#92 = APPROVAL ( #8, 'UNSPECIFIED' ) ;
#93 = CIRCLE ( 'NONE', #49, 1.600000000000000089 ) ;
#94 = DATE_AND_TIME ( #123, #75 ) ;
#95 = CLOSED_SHELL ( 'NONE', ( #2, #169, #194 ) ) ;
#96 = PLANE ( 'NONE',  #227 ) ;
#97 = DATE_AND_TIME ( #105, #125 ) ;
#98 = CARTESIAN_POINT ( 'NONE',  ( 0.0000000000000000000, 0.0000000000000000000, 0.0000000000000000000 ) ) ;
#99 = COORDINATED_UNIVERSAL_TIME_OFFSET ( 1, 0, .AHEAD. ) ;
#100 = DIRECTION ( 'NONE',  ( -3.491481338843133355E-15, 1.224646799147353454E-16, -1.000000000000000000 ) ) ;
#101 = CARTESIAN_POINT ( 'NONE',  ( 1.222018468595096801E-13, 1.599999999999995648, 35.00000000000000000 ) ) ;
#102 = ORIENTED_EDGE ( 'NONE', *, *, #260, .T. ) ;
#103 = PERSON ( 'UNSPECIFIED', 'UNSPECIFIED', 'UNSPECIFIED', ('UNSPECIFIED'), ('UNSPECIFIED'), ('UNSPECIFIED') ) ;
#104 = FACE_BOUND ( 'NONE', #171, .T. ) ;
#105 = CALENDAR_DATE ( 2021, 8, 11 ) ;
#106 = CARTESIAN_POINT ( 'NONE',  ( 8.728703347107828655E-15, -0.7500000000000004441, 2.499999999999998668 ) ) ;
#107 = DIRECTION ( 'NONE',  ( 3.491481338843133355E-15, -1.224646799147353454E-16, 1.000000000000000000 ) ) ;
#108 = CIRCLE ( 'NONE', #290, 0.7500000000000000000 ) ;
#109 = CARTESIAN_POINT ( 'NONE',  ( 0.0000000000000000000, 0.0000000000000000000, 0.0000000000000000000 ) ) ;
#110 = FACE_BOUND ( 'NONE', #217, .T. ) ;
#111 = DIRECTION ( 'NONE',  ( -3.491481338843133355E-15, 1.224646799147353454E-16, -1.000000000000000000 ) ) ;
#112 = FACE_OUTER_BOUND ( 'NONE', #88, .T. ) ;
#113 = MANIFOLD_SOLID_BREP ( 'Corps-Déplacer/Copier1[2]', #95 ) ;
#114 = CARTESIAN_POINT ( 'NONE',  ( 2.269462870248036996E-14, -7.788450197126431505E-16, 6.500000000000000888 ) ) ;
#115 = AXIS2_PLACEMENT_3D ( 'NONE', #279, #61, #164 ) ;
#116 = DIRECTION ( 'NONE',  ( 4.275831445896959482E-31, 1.000000000000000000, 1.224646799147353454E-16 ) ) ;
#117 = AXIS2_PLACEMENT_3D ( 'NONE', #21, #111, #212 ) ;
#118 = DIRECTION ( 'NONE',  ( -3.491481338843133355E-15, 1.224646799147353454E-16, -1.000000000000000000 ) ) ;
#119 = ORIENTED_EDGE ( 'NONE', *, *, #139, .T. ) ;
#120 = ORIENTED_EDGE ( 'NONE', *, *, #192, .F. ) ;
#121 = EDGE_LOOP ( 'NONE', ( #176 ) ) ;
#122 = EDGE_CURVE ( 'NONE', #288, #288, #37, .T. ) ;
#123 = CALENDAR_DATE ( 2021, 8, 11 ) ;
#124 = EDGE_LOOP ( 'NONE', ( #230 ) ) ;
#125 = LOCAL_TIME ( 15, 12, 33.00000000000000000, #221 ) ;
#126 = VERTEX_POINT ( 'NONE', #206 ) ;
#127 = SECURITY_CLASSIFICATION_LEVEL ( 'unclassified' ) ;
#128 = AXIS2_PLACEMENT_3D ( 'NONE', #299, #259, #237 ) ;
#129 =( NAMED_UNIT ( * ) PLANE_ANGLE_UNIT ( ) SI_UNIT ( $, .RADIAN. ) );
#130 = PERSON_AND_ORGANIZATION ( #103, #64 ) ;
#131 = APPROVAL_ROLE ( '' ) ;
#132 = EDGE_LOOP ( 'NONE', ( #5 ) ) ;
#133 = CARTESIAN_POINT ( 'NONE',  ( -6.275360428102167005E-31, -0.7500000000000000000, -1.797334660875330177E-16 ) ) ;
#134 = SHAPE_DEFINITION_REPRESENTATION ( #38, #256 ) ;
#135 = EDGE_LOOP ( 'NONE', ( #242 ) ) ;
#136 = CARTESIAN_POINT ( 'NONE',  ( 1.574508836663475244E-14, -1.500000000000000888, 4.509572539159474758 ) ) ;
#137 = EDGE_LOOP ( 'NONE', ( #3 ) ) ;
#138 = CARTESIAN_POINT ( 'NONE',  ( 0.0000000000000000000, 0.0000000000000000000, 0.0000000000000000000 ) ) ;
#139 = EDGE_CURVE ( 'NONE', #187, #187, #244, .T. ) ;
#140 = DIRECTION ( 'NONE',  ( 3.491481338843133355E-15, -1.198223107250220118E-16, 1.000000000000000000 ) ) ;
#141 = FACE_OUTER_BOUND ( 'NONE', #203, .T. ) ;
#142 = FACE_OUTER_BOUND ( 'NONE', #181, .T. ) ;
#143 = AXIS2_PLACEMENT_3D ( 'NONE', #109, #257, #213 ) ;
#144 = EDGE_LOOP ( 'NONE', ( #193 ) ) ;
#145 = ORIENTED_EDGE ( 'NONE', *, *, #139, .F. ) ;
#146 = CC_DESIGN_APPROVAL ( #92, ( #246 ) ) ;
#147 = APPROVAL_ROLE ( '' ) ;
#148 = VERTEX_POINT ( 'NONE', #32 ) ;
#149 = COORDINATED_UNIVERSAL_TIME_OFFSET ( 1, 0, .AHEAD. ) ;
#150 = FACE_OUTER_BOUND ( 'NONE', #144, .T. ) ;
#151 = SECURITY_CLASSIFICATION ( '', '', #127 ) ;
#152 = VERTEX_POINT ( 'NONE', #293 ) ;
#153 = PERSON_AND_ORGANIZATION_ROLE ( 'creator' ) ;
#154 = EDGE_LOOP ( 'NONE', ( #120 ) ) ;
#155 = DIRECTION ( 'NONE',  ( -4.275831445896959482E-31, -1.000000000000000000, -1.224646799147353454E-16 ) ) ;
#156 = CALENDAR_DATE ( 2021, 8, 11 ) ;
#157 = CARTESIAN_POINT ( 'NONE',  ( 1.006483540989498103E-14, -0.8261204674887135946, 2.882683432365089615 ) ) ;
#158 = DATE_AND_TIME ( #180, #297 ) ;
#159 = CC_DESIGN_DATE_AND_TIME_ASSIGNMENT ( #94, #273, ( #225 ) ) ;
#160 = AXIS2_PLACEMENT_3D ( 'NONE', #184, #229, #55 ) ;
#161 =( NAMED_UNIT ( * ) SI_UNIT ( $, .STERADIAN. ) SOLID_ANGLE_UNIT ( ) );
#162 = AXIS2_PLACEMENT_3D ( 'NONE', #166, #140, #300 ) ;
#163 = ADVANCED_FACE ( 'NONE', ( #141, #142 ), #73, .F. ) ;
#164 = DIRECTION ( 'NONE',  ( -4.275831445896959482E-31, -1.000000000000000000, -1.224646799147353454E-16 ) ) ;
#165 = CARTESIAN_POINT ( 'NONE',  ( 1.222018468595096801E-13, 1.199807826129480202E-32, 35.00000000000000000 ) ) ;
#166 = CARTESIAN_POINT ( 'NONE',  ( 2.490813917446758776E-14, -8.548093207721537231E-16, 7.133974596215555408 ) ) ;
#167 = CARTESIAN_POINT ( 'NONE',  ( 2.490813917446758776E-14, -8.548093207721537231E-16, 7.133974596215555408 ) ) ;
#168 = FACE_OUTER_BOUND ( 'NONE', #269, .T. ) ;
#169 = ADVANCED_FACE ( 'NONE', ( #234, #240 ), #20, .T. ) ;
#170 = EDGE_CURVE ( 'NONE', #148, #148, #270, .T. ) ;
#171 = EDGE_LOOP ( 'NONE', ( #241 ) ) ;
#172 = AXIS2_PLACEMENT_3D ( 'NONE', #114, #63, #211 ) ;
#173 = ADVANCED_FACE ( 'NONE', ( #110, #284 ), #286, .T. ) ;
#174 = CC_DESIGN_PERSON_AND_ORGANIZATION_ASSIGNMENT ( #226, #153, ( #225 ) ) ;
#175 = APPROVAL_ROLE ( '' ) ;
#176 = ORIENTED_EDGE ( 'NONE', *, *, #79, .T. ) ;
#177 = DATE_AND_TIME ( #248, #265 ) ;
#178 = AXIS2_PLACEMENT_3D ( 'NONE', #84, #210, #86 ) ;
#179 = VERTEX_POINT ( 'NONE', #101 ) ;
#180 = CALENDAR_DATE ( 2021, 8, 11 ) ;
#181 = EDGE_LOOP ( 'NONE', ( #274 ) ) ;
#182 = APPLICATION_PROTOCOL_DEFINITION ( 'international standard', 'config_control_design', 1994, #6 ) ;
#183 = UNCERTAINTY_MEASURE_WITH_UNIT (LENGTH_MEASURE( 1.000000000000000082E-05 ), #245, 'distance_accuracy_value', 'NONE');
#184 = CARTESIAN_POINT ( 'NONE',  ( 8.728703347107828655E-15, -2.995557768125549062E-16, 2.499999999999998668 ) ) ;
#185 = EDGE_LOOP ( 'NONE', ( #119 ) ) ;
#186 = ADVANCED_FACE ( 'NONE', ( #23, #62 ), #280, .F. ) ;
#187 = VERTEX_POINT ( 'NONE', #296 ) ;
#188 = DIRECTION ( 'NONE',  ( -4.183573618734778879E-31, -1.000000000000000000, -1.198223107250220118E-16 ) ) ;
#189 = DIRECTION ( 'NONE',  ( 0.0000000000000000000, -1.000000000000000000, 0.0000000000000000000 ) ) ;
#190 = CARTESIAN_POINT ( 'NONE',  ( 1.222018468595096801E-13, -4.286263797015737285E-15, 35.00000000000000000 ) ) ;
#191 = DIRECTION ( 'NONE',  ( 0.0000000000000000000, 1.000000000000000000, 0.0000000000000000000 ) ) ;
#192 = EDGE_CURVE ( 'NONE', #152, #152, #52, .T. ) ;
#193 = ORIENTED_EDGE ( 'NONE', *, *, #170, .T. ) ;
#194 = ADVANCED_FACE ( 'NONE', ( #22 ), #82, .F. ) ;
#195 = APPROVAL_PERSON_ORGANIZATION ( #295, #7, #175 ) ;
#196 = ADVANCED_FACE ( 'NONE', ( #18, #112 ), #258, .T. ) ;
#197 = APPROVAL_PERSON_ORGANIZATION ( #57, #233, #147 ) ;
#198 = PERSON_AND_ORGANIZATION ( #103, #64 ) ;
#199 = ORIENTED_EDGE ( 'NONE', *, *, #247, .T. ) ;
#200 = DIRECTION ( 'NONE',  ( 0.0000000000000000000, 0.0000000000000000000, 1.000000000000000000 ) ) ;
#201 = PERSON_AND_ORGANIZATION ( #103, #64 ) ;
#202 =( GEOMETRIC_REPRESENTATION_CONTEXT ( 3 ) GLOBAL_UNCERTAINTY_ASSIGNED_CONTEXT ( ( #183 ) ) GLOBAL_UNIT_ASSIGNED_CONTEXT ( ( #245, #129, #161 ) ) REPRESENTATION_CONTEXT ( 'NONE', 'WORKASPACE' ) );
#203 = EDGE_LOOP ( 'NONE', ( #90 ) ) ;
#204 = PRODUCT_RELATED_PRODUCT_CATEGORY ( 'detail', '', ( #261 ) ) ;
#205 = AXIS2_PLACEMENT_3D ( 'NONE', #165, #100, #116 ) ;
#206 = CARTESIAN_POINT ( 'NONE',  ( 2.490813917446758776E-14, -2.000000000000000000, 7.133974596215555408 ) ) ;
#207 = APPROVAL_STATUS ( 'not_yet_approved' ) ;
#208 = FACE_OUTER_BOUND ( 'NONE', #135, .T. ) ;
#209 = DIRECTION ( 'NONE',  ( -4.275831445896959482E-31, -1.000000000000000000, -1.224646799147353454E-16 ) ) ;
#210 = DIRECTION ( 'NONE',  ( 3.491481338843133355E-15, -1.198223107250220118E-16, 1.000000000000000000 ) ) ;
#211 = DIRECTION ( 'NONE',  ( 0.0000000000000000000, -1.000000000000000000, 0.0000000000000000000 ) ) ;
#212 = DIRECTION ( 'NONE',  ( 0.0000000000000000000, 1.000000000000000000, 0.0000000000000000000 ) ) ;
#213 = DIRECTION ( 'NONE',  ( -4.183573618734778879E-31, -1.000000000000000000, -1.198223107250220118E-16 ) ) ;
#214 = CONICAL_SURFACE ( 'NONE', #12, 1.500000000000000444, 0.3926990816987253052 ) ;
#215 = EDGE_CURVE ( 'NONE', #14, #14, #268, .T. ) ;
#216 = AXIS2_PLACEMENT_3D ( 'NONE', #16, #107, #209 ) ;
#217 = EDGE_LOOP ( 'NONE', ( #228 ) ) ;
#218 = APPROVAL_DATE_TIME ( #177, #92 ) ;
#219 = ORIENTED_EDGE ( 'NONE', *, *, #294, .F. ) ;
#220 = DIRECTION ( 'NONE',  ( 4.275831445896958607E-31, 1.000000000000000000, 1.224646799147353454E-16 ) ) ;
#221 = COORDINATED_UNIVERSAL_TIME_OFFSET ( 1, 0, .AHEAD. ) ;
#222 = PLANE ( 'NONE',  #216 ) ;
#223 = ADVANCED_FACE ( 'NONE', ( #168, #40 ), #27, .T. ) ;
#224 = VERTEX_POINT ( 'NONE', #133 ) ;
#225 = PRODUCT_DEFINITION ( 'UNKNOWN', '', #246, #59 ) ;
#226 = PERSON_AND_ORGANIZATION ( #103, #64 ) ;
#227 = AXIS2_PLACEMENT_3D ( 'NONE', #13, #58, #155 ) ;
#228 = ORIENTED_EDGE ( 'NONE', *, *, #192, .T. ) ;
#229 = DIRECTION ( 'NONE',  ( 3.491481338843133355E-15, -1.198223107250220118E-16, 1.000000000000000000 ) ) ;
#230 = ORIENTED_EDGE ( 'NONE', *, *, #247, .F. ) ;
#231 = CLOSED_SHELL ( 'NONE', ( #68, #223, #44, #173, #186, #196, #263, #163, #283 ) ) ;
#232 = DIRECTION ( 'NONE',  ( 3.491481338843133355E-15, -1.198223107250220118E-16, 1.000000000000000000 ) ) ;
#233 = APPROVAL ( #289, 'UNSPECIFIED' ) ;
#234 = FACE_OUTER_BOUND ( 'NONE', #72, .T. ) ;
#235 = CC_DESIGN_APPROVAL ( #7, ( #151 ) ) ;
#236 = CARTESIAN_POINT ( 'NONE',  ( 1.006483540989498103E-14, -3.454097899547227508E-16, 2.882683432365089615 ) ) ;
#237 = DIRECTION ( 'NONE',  ( -4.183573618734778004E-31, -1.000000000000000000, -1.198223107250220118E-16 ) ) ;
#238 = DIRECTION ( 'NONE',  ( 0.0000000000000000000, -1.000000000000000000, 0.0000000000000000000 ) ) ;
#239 = DIRECTION ( 'NONE',  ( 0.0000000000000000000, -1.000000000000000000, 0.0000000000000000000 ) ) ;
#240 = FACE_OUTER_BOUND ( 'NONE', #137, .T. ) ;
#241 = ORIENTED_EDGE ( 'NONE', *, *, #56, .T. ) ;
#242 = ORIENTED_EDGE ( 'NONE', *, *, #215, .F. ) ;
#243 = CC_DESIGN_SECURITY_CLASSIFICATION ( #151, ( #246 ) ) ;
#244 = CIRCLE ( 'NONE', #77, 1.500000000000001110 ) ;
#245 =( LENGTH_UNIT ( ) NAMED_UNIT ( * ) SI_UNIT ( .MILLI., .METRE. ) );
#246 = PRODUCT_DEFINITION_FORMATION_WITH_SPECIFIED_SOURCE ( 'ANY', '', #261, .NOT_KNOWN. ) ;
#247 = EDGE_CURVE ( 'NONE', #224, #224, #108, .T. ) ;
#248 = CALENDAR_DATE ( 2021, 8, 11 ) ;
#249 = APPLICATION_PROTOCOL_DEFINITION ( 'international standard', 'config_control_design', 1994, #275 ) ;
#250 = DIRECTION ( 'NONE',  ( 0.0000000000000000000, 1.000000000000000000, 0.0000000000000000000 ) ) ;
#251 = PERSON_AND_ORGANIZATION ( #103, #64 ) ;
#252 = CARTESIAN_POINT ( 'NONE',  ( 1.208052543239724267E-13, 1.999999999999995781, 34.60000000000000853 ) ) ;
#253 = APPROVAL_DATE_TIME ( #158, #7 ) ;
#254 = DIRECTION ( 'NONE',  ( 0.0000000000000000000, -1.000000000000000000, 0.0000000000000000000 ) ) ;
#255 = ORIENTED_EDGE ( 'NONE', *, *, #79, .F. ) ;
#256 = ADVANCED_BREP_SHAPE_REPRESENTATION ( '983252', ( #17, #113, #69 ), #202 ) ;
#257 = DIRECTION ( 'NONE',  ( 3.491481338843133355E-15, -1.198223107250220118E-16, 1.000000000000000000 ) ) ;
#258 = CYLINDRICAL_SURFACE ( 'NONE', #143, 1.500000000000000888 ) ;
#259 = DIRECTION ( 'NONE',  ( 3.491481338843133355E-15, -1.198223107250220118E-16, 1.000000000000000000 ) ) ;
#260 = EDGE_CURVE ( 'NONE', #179, #179, #93, .T. ) ;
#261 = PRODUCT ( '983252', '983252', '', ( #36 ) ) ;
#262 = CARTESIAN_POINT ( 'NONE',  ( 8.728703347107828655E-15, -2.168404344971008868E-16, 2.499999999999998668 ) ) ;
#263 = ADVANCED_FACE ( 'NONE', ( #104, #208 ), #214, .T. ) ;
#264 = CYLINDRICAL_SURFACE ( 'NONE', #43, 1.999999999999998224 ) ;
#265 = LOCAL_TIME ( 15, 12, 33.00000000000000000, #149 ) ;
#266 = AXIS2_PLACEMENT_3D ( 'NONE', #167, #41, #238 ) ;
#267 = EDGE_LOOP ( 'NONE', ( #255 ) ) ;
#268 = CIRCLE ( 'NONE', #178, 1.500000000000000444 ) ;
#269 = EDGE_LOOP ( 'NONE', ( #26 ) ) ;
#270 = CIRCLE ( 'NONE', #87, 0.7500000000000001110 ) ;
#271 = CARTESIAN_POINT ( 'NONE',  ( 1.222018468595096801E-13, -4.286263797015737285E-15, 35.00000000000000000 ) ) ;
#272 = DIRECTION ( 'NONE',  ( -4.183573618734778004E-31, -1.000000000000000000, -1.198223107250220118E-16 ) ) ;
#273 = DATE_TIME_ROLE ( 'creation_date' ) ;
#274 = ORIENTED_EDGE ( 'NONE', *, *, #56, .F. ) ;
#275 = APPLICATION_CONTEXT ( 'configuration controlled 3d designs of mechanical parts and assemblies' ) ;
#276 = DIRECTION ( 'NONE',  ( -3.491481338843133355E-15, 1.224646799147353454E-16, -1.000000000000000000 ) ) ;
#277 = PERSON_AND_ORGANIZATION_ROLE ( 'creator' ) ;
#278 = VERTEX_POINT ( 'NONE', #106 ) ;
#279 = CARTESIAN_POINT ( 'NONE',  ( -3.206893176761000815E-31, 1.124826709063586741E-32, -9.184907108292241390E-17 ) ) ;
#280 = TOROIDAL_SURFACE ( 'NONE', #128, 2.500000000000000888, 0.9999999999999995559 ) ;
#281 = DIRECTION ( 'NONE',  ( 3.491481338843133355E-15, -1.198223107250220118E-16, 1.000000000000000000 ) ) ;
#282 = CARTESIAN_POINT ( 'NONE',  ( 8.728703347107828655E-15, -2.995557768125549062E-16, 2.499999999999998668 ) ) ;
#283 = ADVANCED_FACE ( 'NONE', ( #53 ), #96, .F. ) ;
#284 = FACE_OUTER_BOUND ( 'NONE', #267, .T. ) ;
#285 = CIRCLE ( 'NONE', #160, 0.7500000000000001110 ) ;
#286 = CONICAL_SURFACE ( 'NONE', #162, 1.999999999999999112, 0.5235987755982999259 ) ;
#287 = CC_DESIGN_DATE_AND_TIME_ASSIGNMENT ( #97, #292, ( #151 ) ) ;
#288 = VERTEX_POINT ( 'NONE', #252 ) ;
#289 = APPROVAL_STATUS ( 'not_yet_approved' ) ;
#290 = AXIS2_PLACEMENT_3D ( 'NONE', #10, #232, #272 ) ;
#291 = DIRECTION ( 'NONE',  ( 1.000000000000000000, 0.0000000000000000000, 0.0000000000000000000 ) ) ;
#292 = DATE_TIME_ROLE ( 'classification_date' ) ;
#293 = CARTESIAN_POINT ( 'NONE',  ( 2.269462870248036996E-14, -1.633974596215564068, 6.500000000000000888 ) ) ;
#294 = EDGE_CURVE ( 'NONE', #278, #278, #285, .T. ) ;
#295 = PERSON_AND_ORGANIZATION ( #103, #64 ) ;
#296 = CARTESIAN_POINT ( 'NONE',  ( 2.094888803305880013E-14, -1.500000000000001776, 6.000000000000000000 ) ) ;
#297 = LOCAL_TIME ( 15, 12, 33.00000000000000000, #76 ) ;
#298 = FACE_OUTER_BOUND ( 'NONE', #91, .T. ) ;
#299 = CARTESIAN_POINT ( 'NONE',  ( 2.094888803305880013E-14, -8.673617379884035472E-16, 6.000000000000000000 ) ) ;
#300 = DIRECTION ( 'NONE',  ( 0.0000000000000000000, -1.000000000000000000, 0.0000000000000000000 ) ) ;
#301 = CARTESIAN_POINT ( 'NONE',  ( 2.094888803305880013E-14, -7.189338643501320706E-16, 6.000000000000000000 ) ) ;
#302 = DIRECTION ( 'NONE',  ( 0.0000000000000000000, -1.000000000000000000, 0.0000000000000000000 ) ) ;
#303 = LOCAL_TIME ( 15, 12, 33.00000000000000000, #15 ) ;
ENDSEC;
END-ISO-10303-21;
