ISO-10303-21;
HEADER;
FILE_DESCRIPTION (( 'STEP AP203' ),
    '1' );
FILE_NAME ('983251.step',
    '2021-11-08T14:12:33',
    ( '' ),
    ( '' ),
    'SwSTEP 2.0',
    'SolidWorks 2019',
    '' );
FILE_SCHEMA (( 'CONFIG_CONTROL_DESIGN' ));
ENDSEC;

DATA;
#1 = EDGE_CURVE ( 'NONE', #206, #206, #182, .T. ) ;
#2 = DATE_AND_TIME ( #276, #215 ) ;
#3 = ORIENTED_EDGE ( 'NONE', *, *, #31, .F. ) ;
#4 = EDGE_LOOP ( 'NONE', ( #196 ) ) ;
#5 = DIRECTION ( 'NONE',  ( 3.491481338843133355E-15, -1.198223107250220118E-16, 1.000000000000000000 ) ) ;
#6 = ADVANCED_FACE ( 'NONE', ( #283, #74 ), #242, .T. ) ;
#7 = EDGE_LOOP ( 'NONE', ( #145 ) ) ;
#8 = EDGE_LOOP ( 'NONE', ( #23 ) ) ;
#9 = PLANE ( 'NONE',  #153 ) ;
#10 = ADVANCED_FACE ( 'NONE', ( #28, #90 ), #301, .T. ) ;
#11 = AXIS2_PLACEMENT_3D ( 'NONE', #176, #181, #179 ) ;
#12 = VERTEX_POINT ( 'NONE', #204 ) ;
#13 = DIRECTION ( 'NONE',  ( -4.183573618734778004E-31, -1.000000000000000000, -1.198223107250220118E-16 ) ) ;
#14 = PERSON_AND_ORGANIZATION ( #284, #225 ) ;
#15 = DIRECTION ( 'NONE',  ( 3.491481338843133355E-15, -1.198223107250220118E-16, 1.000000000000000000 ) ) ;
#16 = AXIS2_PLACEMENT_3D ( 'NONE', #47, #240, #222 ) ;
#17 = CALENDAR_DATE ( 2021, 8, 11 ) ;
#18 = DATE_AND_TIME ( #17, #136 ) ;
#19 = CC_DESIGN_APPROVAL ( #173, ( #98 ) ) ;
#20 = FACE_OUTER_BOUND ( 'NONE', #4, .T. ) ;
#21 = CARTESIAN_POINT ( 'NONE',  ( 8.728703347107831810E-15, -5.421010862427531045E-16, 2.499999999999999556 ) ) ;
#22 = DATE_AND_TIME ( #41, #288 ) ;
#23 = ORIENTED_EDGE ( 'NONE', *, *, #300, .F. ) ;
#24 = CARTESIAN_POINT ( 'NONE',  ( 1.780655482809997696E-14, -4.336808689942017736E-16, 5.099999999999999645 ) ) ;
#25 = ORIENTED_EDGE ( 'NONE', *, *, #73, .T. ) ;
#26 = DIRECTION ( 'NONE',  ( -4.289794796347816218E-31, -1.000000000000000000, -1.198223107250220118E-16 ) ) ;
#27 = CARTESIAN_POINT ( 'NONE',  ( 0.0000000000000000000, 0.0000000000000000000, 0.0000000000000000000 ) ) ;
#28 = FACE_BOUND ( 'NONE', #68, .T. ) ;
#29 = DIRECTION ( 'NONE',  ( 0.0000000000000000000, -1.000000000000000000, 0.0000000000000000000 ) ) ;
#30 = CIRCLE ( 'NONE', #60, 2.000000000000000000 ) ;
#31 = EDGE_CURVE ( 'NONE', #292, #292, #84, .T. ) ;
#32 = VERTEX_POINT ( 'NONE', #178 ) ;
#33 = CARTESIAN_POINT ( 'NONE',  ( 1.780655482809997380E-14, -1.000000000000001110, 5.099999999999998757 ) ) ;
#34 = APPROVAL_ROLE ( '' ) ;
#35 = APPROVAL ( #236, 'UNSPECIFIED' ) ;
#36 = CALENDAR_DATE ( 2021, 8, 11 ) ;
#37 = APPLICATION_CONTEXT ( 'configuration controlled 3d designs of mechanical parts and assemblies' ) ;
#38 = COORDINATED_UNIVERSAL_TIME_OFFSET ( 1, 0, .AHEAD. ) ;
#39 = EDGE_CURVE ( 'NONE', #78, #78, #117, .T. ) ;
#40 = FACE_OUTER_BOUND ( 'NONE', #170, .T. ) ;
#41 = CALENDAR_DATE ( 2021, 8, 11 ) ;
#42 = EDGE_LOOP ( 'NONE', ( #148 ) ) ;
#43 = AXIS2_PLACEMENT_3D ( 'NONE', #255, #253, #62 ) ;
#44 = CIRCLE ( 'NONE', #260, 0.5000000000000005551 ) ;
#45 = ADVANCED_FACE ( 'NONE', ( #93, #128 ), #216, .T. ) ;
#46 = EDGE_LOOP ( 'NONE', ( #85 ) ) ;
#47 = CARTESIAN_POINT ( 'NONE',  ( 1.363779296638283820E-14, -4.680282401173853189E-16, 3.906019148566201693 ) ) ;
#48 = EDGE_LOOP ( 'NONE', ( #120 ) ) ;
#49 = EDGE_LOOP ( 'NONE', ( #186 ) ) ;
#50 = EDGE_CURVE ( 'NONE', #32, #32, #30, .T. ) ;
#51 = TOROIDAL_SURFACE ( 'NONE', #130, 2.000000000000000444, 1.000000000000000222 ) ;
#52 = DIRECTION ( 'NONE',  ( 3.491481338843133355E-15, -1.198223107250220118E-16, 1.000000000000000000 ) ) ;
#53 = DIRECTION ( 'NONE',  ( 3.491481338843133355E-15, -1.198223107250220118E-16, 1.000000000000000000 ) ) ;
#54 = DIRECTION ( 'NONE',  ( -3.491481338843133355E-15, 1.224646799147353454E-16, -1.000000000000000000 ) ) ;
#55 = CIRCLE ( 'NONE', #183, 1.600000000000000089 ) ;
#56 = CC_DESIGN_PERSON_AND_ORGANIZATION_ASSIGNMENT ( #109, #61, ( #162 ) ) ;
#57 = PERSON_AND_ORGANIZATION_ROLE ( 'design_owner' ) ;
#58 =( GEOMETRIC_REPRESENTATION_CONTEXT ( 3 ) GLOBAL_UNCERTAINTY_ASSIGNED_CONTEXT ( ( #106 ) ) GLOBAL_UNIT_ASSIGNED_CONTEXT ( ( #177, #246, #104 ) ) REPRESENTATION_CONTEXT ( 'NONE', 'WORKASPACE' ) );
#59 = PERSON_AND_ORGANIZATION_ROLE ( 'creator' ) ;
#60 = AXIS2_PLACEMENT_3D ( 'NONE', #119, #217, #135 ) ;
#61 = PERSON_AND_ORGANIZATION_ROLE ( 'classification_officer' ) ;
#62 = DIRECTION ( 'NONE',  ( 1.000000000000000000, 0.0000000000000000000, 0.0000000000000000000 ) ) ;
#63 = ORIENTED_EDGE ( 'NONE', *, *, #31, .T. ) ;
#64 = MECHANICAL_CONTEXT ( 'NONE', #37, 'mechanical' ) ;
#65 = CARTESIAN_POINT ( 'NONE',  ( 8.728703347107831810E-15, -5.421010862427531045E-16, 2.499999999999999556 ) ) ;
#66 = APPROVAL_DATE_TIME ( #2, #173 ) ;
#67 = EDGE_LOOP ( 'NONE', ( #94 ) ) ;
#68 = EDGE_LOOP ( 'NONE', ( #169 ) ) ;
#69 = CIRCLE ( 'NONE', #11, 0.5761204674887141497 ) ;
#70 = CARTESIAN_POINT ( 'NONE',  ( 8.728703347107828655E-15, -2.995557768125549062E-16, 2.499999999999998668 ) ) ;
#71 = CIRCLE ( 'NONE', #167, 0.5000000000000000000 ) ;
#72 = EDGE_LOOP ( 'NONE', ( #277 ) ) ;
#73 = EDGE_CURVE ( 'NONE', #12, #12, #69, .T. ) ;
#74 = FACE_OUTER_BOUND ( 'NONE', #165, .T. ) ;
#75 = DIRECTION ( 'NONE',  ( 3.491481338843133355E-15, -1.198223107250220118E-16, 1.000000000000000000 ) ) ;
#76 = VERTEX_POINT ( 'NONE', #266 ) ;
#77 = CARTESIAN_POINT ( 'NONE',  ( 8.728703347107828655E-15, -0.5000000000000008882, 2.499999999999998668 ) ) ;
#78 = VERTEX_POINT ( 'NONE', #77 ) ;
#79 = CC_DESIGN_PERSON_AND_ORGANIZATION_ASSIGNMENT ( #212, #184, ( #250 ) ) ;
#80 = FACE_OUTER_BOUND ( 'NONE', #278, .T. ) ;
#81 = DESIGN_CONTEXT ( 'detailed design', #102, 'design' ) ;
#82 = APPROVAL_PERSON_ORGANIZATION ( #157, #141, #34 ) ;
#83 = SECURITY_CLASSIFICATION_LEVEL ( 'unclassified' ) ;
#84 = CIRCLE ( 'NONE', #248, 1.999999999999998668 ) ;
#85 = ORIENTED_EDGE ( 'NONE', *, *, #96, .T. ) ;
#86 = APPROVAL_ROLE ( '' ) ;
#87 = LOCAL_TIME ( 15, 12, 33.00000000000000000, #159 ) ;
#88 = AXIS2_PLACEMENT_3D ( 'NONE', #245, #142, #29 ) ;
#89 = DATE_AND_TIME ( #302, #87 ) ;
#90 = FACE_OUTER_BOUND ( 'NONE', #239, .T. ) ;
#91 = CC_DESIGN_DATE_AND_TIME_ASSIGNMENT ( #89, #140, ( #162 ) ) ;
#92 = FACE_OUTER_BOUND ( 'NONE', #122, .T. ) ;
#93 = FACE_OUTER_BOUND ( 'NONE', #42, .T. ) ;
#94 = ORIENTED_EDGE ( 'NONE', *, *, #96, .F. ) ;
#95 = EDGE_LOOP ( 'NONE', ( #97 ) ) ;
#96 = EDGE_CURVE ( 'NONE', #291, #291, #55, .T. ) ;
#97 = ORIENTED_EDGE ( 'NONE', *, *, #220, .F. ) ;
#98 = PRODUCT_DEFINITION_FORMATION_WITH_SPECIFIED_SOURCE ( 'ANY', '', #286, .NOT_KNOWN. ) ;
#99 = DIRECTION ( 'NONE',  ( 4.275831445896959482E-31, 1.000000000000000000, 1.224646799147353454E-16 ) ) ;
#100 = CARTESIAN_POINT ( 'NONE',  ( 1.955229549752154995E-14, -6.710049400601233843E-16, 5.600000000000000533 ) ) ;
#101 = FACE_OUTER_BOUND ( 'NONE', #95, .T. ) ;
#102 = APPLICATION_CONTEXT ( 'configuration controlled 3d designs of mechanical parts and assemblies' ) ;
#103 = DIRECTION ( 'NONE',  ( 0.0000000000000000000, -1.000000000000000000, 0.0000000000000000000 ) ) ;
#104 =( NAMED_UNIT ( * ) SI_UNIT ( $, .STERADIAN. ) SOLID_ANGLE_UNIT ( ) );
#105 = APPLICATION_PROTOCOL_DEFINITION ( 'international standard', 'config_control_design', 1994, #37 ) ;
#106 = UNCERTAINTY_MEASURE_WITH_UNIT (LENGTH_MEASURE( 1.000000000000000082E-05 ), #177, 'distance_accuracy_value', 'NONE');
#107 = PLANE ( 'NONE',  #156 ) ;
#108 = AXIS2_PLACEMENT_3D ( 'NONE', #191, #238, #223 ) ;
#109 = PERSON_AND_ORGANIZATION ( #284, #225 ) ;
#110 = AXIS2_PLACEMENT_3D ( 'NONE', #194, #75, #282 ) ;
#111 = DATE_TIME_ROLE ( 'creation_date' ) ;
#112 = MANIFOLD_SOLID_BREP ( 'Corps-Déplacer/Copier1[2]', #187 ) ;
#113 = APPROVAL_STATUS ( 'not_yet_approved' ) ;
#114 = PERSON_AND_ORGANIZATION ( #284, #225 ) ;
#115 = FACE_OUTER_BOUND ( 'NONE', #7, .T. ) ;
#116 = APPROVAL_PERSON_ORGANIZATION ( #114, #35, #235 ) ;
#117 = CIRCLE ( 'NONE', #88, 0.5000000000000005551 ) ;
#118 = CARTESIAN_POINT ( 'NONE',  ( 8.728703347107828655E-15, -2.168404344971008868E-16, 2.499999999999998668 ) ) ;
#119 = CARTESIAN_POINT ( 'NONE',  ( 1.208052543239724267E-13, -4.237277925049843857E-15, 34.60000000000000853 ) ) ;
#120 = ORIENTED_EDGE ( 'NONE', *, *, #254, .T. ) ;
#121 = CARTESIAN_POINT ( 'NONE',  ( -2.091786809367389002E-31, 7.178693073741862332E-33, -5.991115536251100589E-17 ) ) ;
#122 = EDGE_LOOP ( 'NONE', ( #241 ) ) ;
#123 = DIRECTION ( 'NONE',  ( -4.275831445896959482E-31, -1.000000000000000000, -1.224646799147353454E-16 ) ) ;
#124 = ADVANCED_FACE ( 'NONE', ( #134, #205 ), #174, .T. ) ;
#125 = MANIFOLD_SOLID_BREP ( 'Corps-Déplacer/Copier1[1]', #202 ) ;
#126 = CARTESIAN_POINT ( 'NONE',  ( 2.478951750578621527E-14, -8.507384061476553419E-16, 7.099999999999991651 ) ) ;
#127 = DIRECTION ( 'NONE',  ( 3.491481338843133355E-15, -1.198223107250220118E-16, 1.000000000000000000 ) ) ;
#128 = FACE_BOUND ( 'NONE', #46, .T. ) ;
#129 = CARTESIAN_POINT ( 'NONE',  ( 1.222018468595096801E-13, 1.199807826129480202E-32, 35.00000000000000000 ) ) ;
#130 = AXIS2_PLACEMENT_3D ( 'NONE', #24, #143, #192 ) ;
#131 = CARTESIAN_POINT ( 'NONE',  ( -4.183573618734778004E-31, -0.5000000000000000000, -1.198223107250220118E-16 ) ) ;
#132 = CC_DESIGN_APPROVAL ( #35, ( #162 ) ) ;
#133 = CIRCLE ( 'NONE', #16, 1.000000000000000444 ) ;
#134 = FACE_BOUND ( 'NONE', #168, .T. ) ;
#135 = DIRECTION ( 'NONE',  ( 0.0000000000000000000, 1.000000000000000000, 0.0000000000000000000 ) ) ;
#136 = LOCAL_TIME ( 15, 12, 33.00000000000000000, #160 ) ;
#137 = AXIS2_PLACEMENT_3D ( 'NONE', #65, #166, #256 ) ;
#138 = FACE_OUTER_BOUND ( 'NONE', #263, .T. ) ;
#139 = APPROVAL_DATE_TIME ( #164, #141 ) ;
#140 = DATE_TIME_ROLE ( 'classification_date' ) ;
#141 = APPROVAL ( #274, 'UNSPECIFIED' ) ;
#142 = DIRECTION ( 'NONE',  ( 3.491481338843133355E-15, -1.198223107250220118E-16, 1.000000000000000000 ) ) ;
#143 = DIRECTION ( 'NONE',  ( 3.491481338843133355E-15, -1.198223107250220118E-16, 1.000000000000000000 ) ) ;
#144 = ORIENTED_EDGE ( 'NONE', *, *, #73, .F. ) ;
#145 = ORIENTED_EDGE ( 'NONE', *, *, #220, .T. ) ;
#146 = EDGE_LOOP ( 'NONE', ( #303 ) ) ;
#147 = CARTESIAN_POINT ( 'NONE',  ( 0.0000000000000000000, 0.0000000000000000000, 0.0000000000000000000 ) ) ;
#148 = ORIENTED_EDGE ( 'NONE', *, *, #50, .F. ) ;
#149 = VERTEX_POINT ( 'NONE', #271 ) ;
#150 = ADVANCED_FACE ( 'NONE', ( #152, #138 ), #151, .T. ) ;
#151 = CYLINDRICAL_SURFACE ( 'NONE', #227, 1.000000000000000444 ) ;
#152 = FACE_OUTER_BOUND ( 'NONE', #199, .T. ) ;
#153 = AXIS2_PLACEMENT_3D ( 'NONE', #21, #258, #123 ) ;
#154 = ADVANCED_FACE ( 'NONE', ( #80 ), #107, .F. ) ;
#155 = APPLICATION_PROTOCOL_DEFINITION ( 'international standard', 'config_control_design', 1994, #102 ) ;
#156 = AXIS2_PLACEMENT_3D ( 'NONE', #209, #296, #158 ) ;
#157 = PERSON_AND_ORGANIZATION ( #284, #225 ) ;
#158 = DIRECTION ( 'NONE',  ( -4.275831445896959482E-31, -1.000000000000000000, -1.224646799147353454E-16 ) ) ;
#159 = COORDINATED_UNIVERSAL_TIME_OFFSET ( 1, 0, .AHEAD. ) ;
#160 = COORDINATED_UNIVERSAL_TIME_OFFSET ( 1, 0, .AHEAD. ) ;
#161 = PERSON_AND_ORGANIZATION ( #284, #225 ) ;
#162 = SECURITY_CLASSIFICATION ( '', '', #83 ) ;
#163 = ADVANCED_FACE ( 'NONE', ( #101 ), #185, .F. ) ;
#164 = DATE_AND_TIME ( #36, #259 ) ;
#165 = EDGE_LOOP ( 'NONE', ( #63 ) ) ;
#166 = DIRECTION ( 'NONE',  ( 3.491481338843133355E-15, -1.224646799147353454E-16, 1.000000000000000000 ) ) ;
#167 = AXIS2_PLACEMENT_3D ( 'NONE', #121, #5, #267 ) ;
#168 = EDGE_LOOP ( 'NONE', ( #25 ) ) ;
#169 = ORIENTED_EDGE ( 'NONE', *, *, #300, .T. ) ;
#170 = EDGE_LOOP ( 'NONE', ( #144 ) ) ;
#171 = CYLINDRICAL_SURFACE ( 'NONE', #213, 0.5000000000000002220 ) ;
#172 = DIRECTION ( 'NONE',  ( 3.491481338843133355E-15, -1.198223107250220118E-16, 1.000000000000000000 ) ) ;
#173 = APPROVAL ( #113, 'UNSPECIFIED' ) ;
#174 = CONICAL_SURFACE ( 'NONE', #289, 1.000000000000000444, 0.3926990816987249167 ) ;
#175 = FACE_OUTER_BOUND ( 'NONE', #67, .T. ) ;
#176 = CARTESIAN_POINT ( 'NONE',  ( 1.006483540989497945E-14, -3.454097899547227015E-16, 2.882683432365089171 ) ) ;
#177 =( LENGTH_UNIT ( ) NAMED_UNIT ( * ) SI_UNIT ( .MILLI., .METRE. ) );
#178 = CARTESIAN_POINT ( 'NONE',  ( 1.208052543239724267E-13, 1.999999999999995781, 34.60000000000000853 ) ) ;
#179 = DIRECTION ( 'NONE',  ( 0.0000000000000000000, -1.000000000000000000, 0.0000000000000000000 ) ) ;
#180 = CC_DESIGN_SECURITY_CLASSIFICATION ( #162, ( #98 ) ) ;
#181 = DIRECTION ( 'NONE',  ( 3.491481338843133355E-15, -1.198223107250220118E-16, 1.000000000000000000 ) ) ;
#182 = CIRCLE ( 'NONE', #110, 1.000000000000000444 ) ;
#183 = AXIS2_PLACEMENT_3D ( 'NONE', #232, #270, #200 ) ;
#184 = PERSON_AND_ORGANIZATION_ROLE ( 'creator' ) ;
#185 = PLANE ( 'NONE',  #137 ) ;
#186 = ORIENTED_EDGE ( 'NONE', *, *, #234, .F. ) ;
#187 = CLOSED_SHELL ( 'NONE', ( #198, #218, #154 ) ) ;
#188 = COORDINATED_UNIVERSAL_TIME_OFFSET ( 1, 0, .AHEAD. ) ;
#189 = COORDINATED_UNIVERSAL_TIME_OFFSET ( 1, 0, .AHEAD. ) ;
#190 = DIRECTION ( 'NONE',  ( 0.0000000000000000000, -1.000000000000000000, 0.0000000000000000000 ) ) ;
#191 = CARTESIAN_POINT ( 'NONE',  ( 1.222018468595096801E-13, -4.286263797015737285E-15, 35.00000000000000000 ) ) ;
#192 = DIRECTION ( 'NONE',  ( -4.183573618734778004E-31, -1.000000000000000000, -1.198223107250220118E-16 ) ) ;
#193 = ADVANCED_FACE ( 'NONE', ( #115, #40 ), #203, .F. ) ;
#194 = CARTESIAN_POINT ( 'NONE',  ( 1.780655482809997380E-14, -6.110937846976121072E-16, 5.099999999999998757 ) ) ;
#195 = FACE_OUTER_BOUND ( 'NONE', #146, .T. ) ;
#196 = ORIENTED_EDGE ( 'NONE', *, *, #39, .T. ) ;
#197 = FACE_OUTER_BOUND ( 'NONE', #48, .T. ) ;
#198 = ADVANCED_FACE ( 'NONE', ( #20 ), #9, .T. ) ;
#199 = EDGE_LOOP ( 'NONE', ( #221 ) ) ;
#200 = DIRECTION ( 'NONE',  ( 0.0000000000000000000, 1.000000000000000000, 0.0000000000000000000 ) ) ;
#201 = CC_DESIGN_APPROVAL ( #141, ( #250 ) ) ;
#202 = CLOSED_SHELL ( 'NONE', ( #6, #45, #295, #10, #214, #150, #124, #193, #163 ) ) ;
#203 = TOROIDAL_SURFACE ( 'NONE', #280, 1.500000000000000222, 0.9999999999999997780 ) ;
#204 = CARTESIAN_POINT ( 'NONE',  ( 1.006483540989497945E-14, -0.5761204674887144828, 2.882683432365089171 ) ) ;
#205 = FACE_OUTER_BOUND ( 'NONE', #49, .T. ) ;
#206 = VERTEX_POINT ( 'NONE', #33 ) ;
#207 = CC_DESIGN_PERSON_AND_ORGANIZATION_ASSIGNMENT ( #14, #298, ( #98 ) ) ;
#208 = CARTESIAN_POINT ( 'NONE',  ( 2.478951750578621527E-14, -1.999999999999999556, 7.099999999999991651 ) ) ;
#209 = CARTESIAN_POINT ( 'NONE',  ( -3.206893176761000815E-31, 1.124826709063586741E-32, -9.184907108292241390E-17 ) ) ;
#210 = PERSON_AND_ORGANIZATION ( #284, #225 ) ;
#211 = CC_DESIGN_PERSON_AND_ORGANIZATION_ASSIGNMENT ( #210, #59, ( #98 ) ) ;
#212 = PERSON_AND_ORGANIZATION ( #284, #225 ) ;
#213 = AXIS2_PLACEMENT_3D ( 'NONE', #147, #279, #243 ) ;
#214 = ADVANCED_FACE ( 'NONE', ( #92, #287 ), #51, .F. ) ;
#215 = LOCAL_TIME ( 15, 12, 33.00000000000000000, #189 ) ;
#216 = CONICAL_SURFACE ( 'NONE', #108, 1.600000000000000089, 0.7853981633974512766 ) ;
#217 = DIRECTION ( 'NONE',  ( -3.491481338843133355E-15, 1.224646799147353454E-16, -1.000000000000000000 ) ) ;
#218 = ADVANCED_FACE ( 'NONE', ( #197, #195 ), #171, .T. ) ;
#219 = ORIENTED_EDGE ( 'NONE', *, *, #254, .F. ) ;
#220 = EDGE_CURVE ( 'NONE', #76, #76, #44, .T. ) ;
#221 = ORIENTED_EDGE ( 'NONE', *, *, #234, .T. ) ;
#222 = DIRECTION ( 'NONE',  ( 0.0000000000000000000, -1.000000000000000000, 0.0000000000000000000 ) ) ;
#223 = DIRECTION ( 'NONE',  ( 0.0000000000000000000, 1.000000000000000000, 0.0000000000000000000 ) ) ;
#224 = CARTESIAN_POINT ( 'NONE',  ( 1.955229549752154995E-14, -1.133974596215562958, 5.600000000000000533 ) ) ;
#225 = ORGANIZATION ( 'UNSPECIFIED', 'UNSPECIFIED', '' ) ;
#226 = CARTESIAN_POINT ( 'NONE',  ( 0.0000000000000000000, 0.0000000000000000000, 0.0000000000000000000 ) ) ;
#227 = AXIS2_PLACEMENT_3D ( 'NONE', #226, #53, #13 ) ;
#228 = CARTESIAN_POINT ( 'NONE',  ( 1.222018468595096801E-13, 1.599999999999995648, 35.00000000000000000 ) ) ;
#229 = CC_DESIGN_DATE_AND_TIME_ASSIGNMENT ( #18, #111, ( #250 ) ) ;
#230 = DIRECTION ( 'NONE',  ( 3.491481338843133355E-15, -1.198223107250220118E-16, 1.000000000000000000 ) ) ;
#231 = DIRECTION ( 'NONE',  ( 0.0000000000000000000, -1.000000000000000000, 0.0000000000000000000 ) ) ;
#232 = CARTESIAN_POINT ( 'NONE',  ( 1.222018468595096801E-13, -4.286263797015737285E-15, 35.00000000000000000 ) ) ;
#233 = AXIS2_PLACEMENT_3D ( 'NONE', #126, #172, #257 ) ;
#234 = EDGE_CURVE ( 'NONE', #149, #149, #133, .T. ) ;
#235 = APPROVAL_ROLE ( '' ) ;
#236 = APPROVAL_STATUS ( 'not_yet_approved' ) ;
#237 = APPROVAL_PERSON_ORGANIZATION ( #161, #173, #86 ) ;
#238 = DIRECTION ( 'NONE',  ( -3.491481338843133355E-15, 1.224646799147353454E-16, -1.000000000000000000 ) ) ;
#239 = EDGE_LOOP ( 'NONE', ( #3 ) ) ;
#240 = DIRECTION ( 'NONE',  ( 3.491481338843133355E-15, -1.198223107250220118E-16, 1.000000000000000000 ) ) ;
#241 = ORIENTED_EDGE ( 'NONE', *, *, #1, .T. ) ;
#242 = CYLINDRICAL_SURFACE ( 'NONE', #252, 1.999999999999998224 ) ;
#243 = DIRECTION ( 'NONE',  ( -4.183573618734778004E-31, -1.000000000000000000, -1.198223107250220118E-16 ) ) ;
#244 = PRODUCT_DEFINITION_SHAPE ( 'NONE', 'NONE',  #250 ) ;
#245 = CARTESIAN_POINT ( 'NONE',  ( 8.728703347107828655E-15, -2.995557768125549062E-16, 2.499999999999998668 ) ) ;
#246 =( NAMED_UNIT ( * ) PLANE_ANGLE_UNIT ( ) SI_UNIT ( $, .RADIAN. ) );
#247 = SHAPE_DEFINITION_REPRESENTATION ( #244, #294 ) ;
#248 = AXIS2_PLACEMENT_3D ( 'NONE', #265, #52, #190 ) ;
#249 = DIRECTION ( 'NONE',  ( 3.491481338843133355E-15, -1.198223107250220118E-16, 1.000000000000000000 ) ) ;
#250 = PRODUCT_DEFINITION ( 'UNKNOWN', '', #98, #81 ) ;
#251 = CARTESIAN_POINT ( 'NONE',  ( 1.363779296638283820E-14, -4.680282401173853189E-16, 3.906019148566201693 ) ) ;
#252 = AXIS2_PLACEMENT_3D ( 'NONE', #27, #264, #261 ) ;
#253 = DIRECTION ( 'NONE',  ( 0.0000000000000000000, 0.0000000000000000000, 1.000000000000000000 ) ) ;
#254 = EDGE_CURVE ( 'NONE', #293, #293, #71, .T. ) ;
#255 = CARTESIAN_POINT ( 'NONE',  ( 0.0000000000000000000, 0.0000000000000000000, 0.0000000000000000000 ) ) ;
#256 = DIRECTION ( 'NONE',  ( -4.275831445896959482E-31, -1.000000000000000000, -1.224646799147353454E-16 ) ) ;
#257 = DIRECTION ( 'NONE',  ( 0.0000000000000000000, -1.000000000000000000, 0.0000000000000000000 ) ) ;
#258 = DIRECTION ( 'NONE',  ( 3.491481338843133355E-15, -1.224646799147353454E-16, 1.000000000000000000 ) ) ;
#259 = LOCAL_TIME ( 15, 12, 33.00000000000000000, #38 ) ;
#260 = AXIS2_PLACEMENT_3D ( 'NONE', #70, #127, #262 ) ;
#261 = DIRECTION ( 'NONE',  ( 4.275831445896958607E-31, 1.000000000000000000, 1.224646799147353454E-16 ) ) ;
#262 = DIRECTION ( 'NONE',  ( 0.0000000000000000000, -1.000000000000000000, 0.0000000000000000000 ) ) ;
#263 = EDGE_LOOP ( 'NONE', ( #285 ) ) ;
#264 = DIRECTION ( 'NONE',  ( -3.491481338843133355E-15, 1.224646799147353454E-16, -1.000000000000000000 ) ) ;
#265 = CARTESIAN_POINT ( 'NONE',  ( 2.478951750578621527E-14, -8.507384061476553419E-16, 7.099999999999991651 ) ) ;
#266 = CARTESIAN_POINT ( 'NONE',  ( 8.728703347107828655E-15, -0.5000000000000008882, 2.499999999999998668 ) ) ;
#267 = DIRECTION ( 'NONE',  ( -4.183573618734778004E-31, -1.000000000000000000, -1.198223107250220118E-16 ) ) ;
#268 = APPROVAL_DATE_TIME ( #22, #35 ) ;
#269 = VERTEX_POINT ( 'NONE', #224 ) ;
#270 = DIRECTION ( 'NONE',  ( -3.491481338843133355E-15, 1.224646799147353454E-16, -1.000000000000000000 ) ) ;
#271 = CARTESIAN_POINT ( 'NONE',  ( 1.363779296638283820E-14, -1.000000000000000888, 3.906019148566201693 ) ) ;
#272 = PLANE ( 'NONE',  #297 ) ;
#273 = CIRCLE ( 'NONE', #281, 1.133974596215562292 ) ;
#274 = APPROVAL_STATUS ( 'not_yet_approved' ) ;
#275 = CC_DESIGN_PERSON_AND_ORGANIZATION_ASSIGNMENT ( #299, #57, ( #286 ) ) ;
#276 = CALENDAR_DATE ( 2021, 8, 11 ) ;
#277 = ORIENTED_EDGE ( 'NONE', *, *, #50, .T. ) ;
#278 = EDGE_LOOP ( 'NONE', ( #219 ) ) ;
#279 = DIRECTION ( 'NONE',  ( 3.491481338843133355E-15, -1.198223107250220118E-16, 1.000000000000000000 ) ) ;
#280 = AXIS2_PLACEMENT_3D ( 'NONE', #118, #15, #26 ) ;
#281 = AXIS2_PLACEMENT_3D ( 'NONE', #100, #249, #231 ) ;
#282 = DIRECTION ( 'NONE',  ( 0.0000000000000000000, -1.000000000000000000, 0.0000000000000000000 ) ) ;
#283 = FACE_OUTER_BOUND ( 'NONE', #72, .T. ) ;
#284 = PERSON ( 'UNSPECIFIED', 'UNSPECIFIED', 'UNSPECIFIED', ('UNSPECIFIED'), ('UNSPECIFIED'), ('UNSPECIFIED') ) ;
#285 = ORIENTED_EDGE ( 'NONE', *, *, #1, .F. ) ;
#286 = PRODUCT ( '983251', '983251', '', ( #64 ) ) ;
#287 = FACE_OUTER_BOUND ( 'NONE', #8, .T. ) ;
#288 = LOCAL_TIME ( 15, 12, 33.00000000000000000, #188 ) ;
#289 = AXIS2_PLACEMENT_3D ( 'NONE', #251, #230, #103 ) ;
#290 = PRODUCT_RELATED_PRODUCT_CATEGORY ( 'detail', '', ( #286 ) ) ;
#291 = VERTEX_POINT ( 'NONE', #228 ) ;
#292 = VERTEX_POINT ( 'NONE', #208 ) ;
#293 = VERTEX_POINT ( 'NONE', #131 ) ;
#294 = ADVANCED_BREP_SHAPE_REPRESENTATION ( '983251', ( #125, #112, #43 ), #58 ) ;
#295 = ADVANCED_FACE ( 'NONE', ( #175 ), #272, .F. ) ;
#296 = DIRECTION ( 'NONE',  ( 3.491481338843133355E-15, -1.224646799147353454E-16, 1.000000000000000000 ) ) ;
#297 = AXIS2_PLACEMENT_3D ( 'NONE', #129, #54, #99 ) ;
#298 = PERSON_AND_ORGANIZATION_ROLE ( 'design_supplier' ) ;
#299 = PERSON_AND_ORGANIZATION ( #284, #225 ) ;
#300 = EDGE_CURVE ( 'NONE', #269, #269, #273, .T. ) ;
#301 = CONICAL_SURFACE ( 'NONE', #233, 1.999999999999998668, 0.5235987755983005920 ) ;
#302 = CALENDAR_DATE ( 2021, 8, 11 ) ;
#303 = ORIENTED_EDGE ( 'NONE', *, *, #39, .F. ) ;
ENDSEC;
END-ISO-10303-21;
