ISO-10303-21;
HEADER;
FILE_DESCRIPTION (( 'STEP AP203' ),
    '1' );
FILE_NAME ('983250.step',
    '2021-11-08T14:12:32',
    ( '' ),
    ( '' ),
    'SwSTEP 2.0',
    'SolidWorks 2019',
    '' );
FILE_SCHEMA (( 'CONFIG_CONTROL_DESIGN' ));
ENDSEC;

DATA;
#1 = CC_DESIGN_DATE_AND_TIME_ASSIGNMENT ( #125, #67, ( #232 ) ) ;
#2 = FACE_OUTER_BOUND ( 'NONE', #183, .T. ) ;
#3 = AXIS2_PLACEMENT_3D ( 'NONE', #198, #149, #174 ) ;
#4 = ORIENTED_EDGE ( 'NONE', *, *, #169, .T. ) ;
#5 = VERTEX_POINT ( 'NONE', #196 ) ;
#6 = MANIFOLD_SOLID_BREP ( 'Corps-Déplacer/Copier1[2]', #37 ) ;
#7 = CYLINDRICAL_SURFACE ( 'NONE', #17, 1.999999999999997780 ) ;
#8 = ADVANCED_FACE ( 'NONE', ( #279, #263 ), #30, .F. ) ;
#9 = CARTESIAN_POINT ( 'NONE',  ( 3.491481338843129805E-15, -2.168404344971011826E-16, 0.9999999999999988898 ) ) ;
#10 = FACE_OUTER_BOUND ( 'NONE', #137, .T. ) ;
#11 = DIRECTION ( 'NONE',  ( -4.183573618734778004E-31, -1.000000000000000000, -1.198223107250220118E-16 ) ) ;
#12 = EDGE_CURVE ( 'NONE', #106, #106, #283, .T. ) ;
#13 = CIRCLE ( 'NONE', #269, 0.7500000000000003331 ) ;
#14 = AXIS2_PLACEMENT_3D ( 'NONE', #142, #246, #191 ) ;
#15 = APPROVAL_ROLE ( '' ) ;
#16 = DIRECTION ( 'NONE',  ( 1.000000000000000000, 0.0000000000000000000, 0.0000000000000000000 ) ) ;
#17 = AXIS2_PLACEMENT_3D ( 'NONE', #98, #288, #201 ) ;
#18 = APPROVAL_PERSON_ORGANIZATION ( #175, #154, #15 ) ;
#19 = SHAPE_DEFINITION_REPRESENTATION ( #34, #25 ) ;
#20 = CARTESIAN_POINT ( 'NONE',  ( 0.0000000000000000000, 0.0000000000000000000, 0.0000000000000000000 ) ) ;
#21 = APPLICATION_CONTEXT ( 'configuration controlled 3d designs of mechanical parts and assemblies' ) ;
#22 = ORIENTED_EDGE ( 'NONE', *, *, #190, .T. ) ;
#23 = CARTESIAN_POINT ( 'NONE',  ( 1.780655482809998327E-14, -0.8839745962155630687, 5.100000000000001421 ) ) ;
#24 = ORIENTED_EDGE ( 'NONE', *, *, #190, .F. ) ;
#25 = ADVANCED_BREP_SHAPE_REPRESENTATION ( '983250', ( #194, #6, #159 ), #297 ) ;
#26 = CC_DESIGN_SECURITY_CLASSIFICATION ( #232, ( #60 ) ) ;
#27 = EDGE_LOOP ( 'NONE', ( #4 ) ) ;
#28 = CARTESIAN_POINT ( 'NONE',  ( 1.606081415867841343E-14, -6.505213034913026604E-16, 4.599999999999999645 ) ) ;
#29 = EDGE_LOOP ( 'NONE', ( #91 ) ) ;
#30 = TOROIDAL_SURFACE ( 'NONE', #248, 1.750000000000000444, 1.000000000000000000 ) ;
#31 = CARTESIAN_POINT ( 'NONE',  ( 1.606081415867841343E-14, -0.7500000000000008882, 4.599999999999999645 ) ) ;
#32 = AXIS2_PLACEMENT_3D ( 'NONE', #252, #195, #99 ) ;
#33 = DIRECTION ( 'NONE',  ( -4.183573618734778004E-31, -1.000000000000000000, -1.198223107250220118E-16 ) ) ;
#34 = PRODUCT_DEFINITION_SHAPE ( 'NONE', 'NONE',  #147 ) ;
#35 = DIRECTION ( 'NONE',  ( 3.491481338843133355E-15, -1.198223107250220118E-16, 1.000000000000000000 ) ) ;
#36 = CARTESIAN_POINT ( 'NONE',  ( 0.0000000000000000000, 0.0000000000000000000, 0.0000000000000000000 ) ) ;
#37 = CLOSED_SHELL ( 'NONE', ( #234, #48, #120 ) ) ;
#38 = CIRCLE ( 'NONE', #14, 0.3261204674887146493 ) ;
#39 = CARTESIAN_POINT ( 'NONE',  ( 1.222018468595096801E-13, -4.286263797015737285E-15, 35.00000000000000000 ) ) ;
#40 = DIRECTION ( 'NONE',  ( 0.0000000000000000000, -1.000000000000000000, 0.0000000000000000000 ) ) ;
#41 = COORDINATED_UNIVERSAL_TIME_OFFSET ( 1, 0, .AHEAD. ) ;
#42 = PERSON_AND_ORGANIZATION_ROLE ( 'creator' ) ;
#43 = CIRCLE ( 'NONE', #3, 0.2500000000000007772 ) ;
#44 = COORDINATED_UNIVERSAL_TIME_OFFSET ( 1, 0, .AHEAD. ) ;
#45 = ORIENTED_EDGE ( 'NONE', *, *, #217, .T. ) ;
#46 = ORIENTED_EDGE ( 'NONE', *, *, #207, .T. ) ;
#47 = EDGE_LOOP ( 'NONE', ( #241 ) ) ;
#48 = ADVANCED_FACE ( 'NONE', ( #2, #185 ), #141, .T. ) ;
#49 = EDGE_LOOP ( 'NONE', ( #301 ) ) ;
#50 = CC_DESIGN_PERSON_AND_ORGANIZATION_ASSIGNMENT ( #89, #203, ( #60 ) ) ;
#51 = VERTEX_POINT ( 'NONE', #31 ) ;
#52 = CARTESIAN_POINT ( 'NONE',  ( -1.045893404683694501E-31, 3.589346536870931166E-33, -2.995557768125550294E-17 ) ) ;
#53 = AXIS2_PLACEMENT_3D ( 'NONE', #36, #286, #11 ) ;
#54 = AXIS2_PLACEMENT_3D ( 'NONE', #292, #249, #170 ) ;
#55 = CC_DESIGN_PERSON_AND_ORGANIZATION_ASSIGNMENT ( #208, #182, ( #232 ) ) ;
#56 = DIRECTION ( 'NONE',  ( 3.491481338843133355E-15, -1.198223107250220118E-16, 1.000000000000000000 ) ) ;
#57 = FACE_BOUND ( 'NONE', #267, .T. ) ;
#58 = FACE_OUTER_BOUND ( 'NONE', #282, .T. ) ;
#59 = CC_DESIGN_PERSON_AND_ORGANIZATION_ASSIGNMENT ( #253, #127, ( #147 ) ) ;
#60 = PRODUCT_DEFINITION_FORMATION_WITH_SPECIFIED_SOURCE ( 'ANY', '', #177, .NOT_KNOWN. ) ;
#61 = DESIGN_CONTEXT ( 'detailed design', #87, 'design' ) ;
#62 = CARTESIAN_POINT ( 'NONE',  ( 8.400570958118138167E-15, -2.882947740298522765E-16, 2.406019148566201693 ) ) ;
#63 = APPROVAL_ROLE ( '' ) ;
#64 = CARTESIAN_POINT ( 'NONE',  ( 1.222018468595096801E-13, -4.286263797015737285E-15, 35.00000000000000000 ) ) ;
#65 = EDGE_CURVE ( 'NONE', #156, #156, #13, .T. ) ;
#66 = APPROVAL_STATUS ( 'not_yet_approved' ) ;
#67 = DATE_TIME_ROLE ( 'classification_date' ) ;
#68 = APPROVAL_ROLE ( '' ) ;
#69 = ORGANIZATION ( 'UNSPECIFIED', 'UNSPECIFIED', '' ) ;
#70 = ORIENTED_EDGE ( 'NONE', *, *, #12, .F. ) ;
#71 = CLOSED_SHELL ( 'NONE', ( #220, #227, #155, #132, #8, #266, #180, #164, #186 ) ) ;
#72 = AXIS2_PLACEMENT_3D ( 'NONE', #80, #273, #138 ) ;
#73 = CARTESIAN_POINT ( 'NONE',  ( 1.222018468595096801E-13, 1.599999999999995648, 35.00000000000000000 ) ) ;
#74 = EDGE_CURVE ( 'NONE', #184, #184, #166, .T. ) ;
#75 = CARTESIAN_POINT ( 'NONE',  ( -3.206893176761000815E-31, 1.124826709063586741E-32, -9.184907108292241390E-17 ) ) ;
#76 = FACE_OUTER_BOUND ( 'NONE', #262, .T. ) ;
#77 =( NAMED_UNIT ( * ) SI_UNIT ( $, .STERADIAN. ) SOLID_ANGLE_UNIT ( ) );
#78 = CC_DESIGN_APPROVAL ( #101, ( #60 ) ) ;
#79 = DIRECTION ( 'NONE',  ( 3.491481338843133355E-15, -1.198223107250220118E-16, 1.000000000000000000 ) ) ;
#80 = CARTESIAN_POINT ( 'NONE',  ( 3.491481338843130989E-15, -1.198223107250219378E-16, 0.9999999999999993339 ) ) ;
#81 = PLANE ( 'NONE',  #302 ) ;
#82 = CC_DESIGN_APPROVAL ( #154, ( #147 ) ) ;
#83 = UNCERTAINTY_MEASURE_WITH_UNIT (LENGTH_MEASURE( 1.000000000000000082E-05 ), #287, 'distance_accuracy_value', 'NONE');
#84 = CONICAL_SURFACE ( 'NONE', #270, 1.600000000000000089, 0.7853981633974512766 ) ;
#85 = DATE_AND_TIME ( #173, #187 ) ;
#86 = COORDINATED_UNIVERSAL_TIME_OFFSET ( 1, 0, .AHEAD. ) ;
#87 = APPLICATION_CONTEXT ( 'configuration controlled 3d designs of mechanical parts and assemblies' ) ;
#88 = CARTESIAN_POINT ( 'NONE',  ( 1.208052543239724267E-13, 1.999999999999995781, 34.60000000000000853 ) ) ;
#89 = PERSON_AND_ORGANIZATION ( #247, #69 ) ;
#90 = CONICAL_SURFACE ( 'NONE', #238, 0.7500000000000003331, 0.3926990816987245836 ) ;
#91 = ORIENTED_EDGE ( 'NONE', *, *, #65, .F. ) ;
#92 = DIRECTION ( 'NONE',  ( 0.0000000000000000000, 1.000000000000000000, 0.0000000000000000000 ) ) ;
#93 = EDGE_LOOP ( 'NONE', ( #45 ) ) ;
#94 = ORIENTED_EDGE ( 'NONE', *, *, #217, .F. ) ;
#95 = APPROVAL_PERSON_ORGANIZATION ( #153, #97, #63 ) ;
#96 = CARTESIAN_POINT ( 'NONE',  ( 8.400570958118138167E-15, -2.882947740298522765E-16, 2.406019148566201693 ) ) ;
#97 = APPROVAL ( #258, 'UNSPECIFIED' ) ;
#98 = CARTESIAN_POINT ( 'NONE',  ( 0.0000000000000000000, 0.0000000000000000000, 0.0000000000000000000 ) ) ;
#99 = DIRECTION ( 'NONE',  ( 0.0000000000000000000, -1.000000000000000000, 0.0000000000000000000 ) ) ;
#100 = FACE_OUTER_BOUND ( 'NONE', #49, .T. ) ;
#101 = APPROVAL ( #176, 'UNSPECIFIED' ) ;
#102 = DIRECTION ( 'NONE',  ( 4.275831445896959482E-31, 1.000000000000000000, 1.224646799147353454E-16 ) ) ;
#103 = CARTESIAN_POINT ( 'NONE',  ( 8.400570958118138167E-15, -0.7500000000000006661, 2.406019148566201693 ) ) ;
#104 = CYLINDRICAL_SURFACE ( 'NONE', #264, 0.7500000000000003331 ) ;
#105 = APPLICATION_PROTOCOL_DEFINITION ( 'international standard', 'config_control_design', 1994, #87 ) ;
#106 = VERTEX_POINT ( 'NONE', #88 ) ;
#107 = ORIENTED_EDGE ( 'NONE', *, *, #12, .T. ) ;
#108 = CIRCLE ( 'NONE', #72, 0.2500000000000007772 ) ;
#109 = DIRECTION ( 'NONE',  ( -3.491481338843133355E-15, 1.224646799147353454E-16, -1.000000000000000000 ) ) ;
#110 = ORIENTED_EDGE ( 'NONE', *, *, #157, .F. ) ;
#111 = CARTESIAN_POINT ( 'NONE',  ( 1.208052543239724267E-13, -4.237277925049843857E-15, 34.60000000000000853 ) ) ;
#112 = CARTESIAN_POINT ( 'NONE',  ( 2.455563260450337867E-14, -1.999999999999999556, 7.033012701892211282 ) ) ;
#113 = EDGE_LOOP ( 'NONE', ( #214 ) ) ;
#114 = VERTEX_POINT ( 'NONE', #163 ) ;
#115 = FACE_OUTER_BOUND ( 'NONE', #239, .T. ) ;
#116 = CARTESIAN_POINT ( 'NONE',  ( 3.491481338843129805E-15, -2.168404344971008868E-16, 0.9999999999999988898 ) ) ;
#117 = DIRECTION ( 'NONE',  ( -4.275831445896959482E-31, -1.000000000000000000, -1.224646799147353454E-16 ) ) ;
#118 = CC_DESIGN_DATE_AND_TIME_ASSIGNMENT ( #85, #226, ( #147 ) ) ;
#119 = FACE_OUTER_BOUND ( 'NONE', #93, .T. ) ;
#120 = ADVANCED_FACE ( 'NONE', ( #58 ), #271, .F. ) ;
#121 = FACE_BOUND ( 'NONE', #209, .T. ) ;
#122 = DATE_AND_TIME ( #152, #144 ) ;
#123 = PERSON_AND_ORGANIZATION ( #247, #69 ) ;
#124 = AXIS2_PLACEMENT_3D ( 'NONE', #52, #79, #33 ) ;
#125 = DATE_AND_TIME ( #299, #290 ) ;
#126 = DIRECTION ( 'NONE',  ( -3.491481338843133355E-15, 1.224646799147353454E-16, -1.000000000000000000 ) ) ;
#127 = PERSON_AND_ORGANIZATION_ROLE ( 'creator' ) ;
#128 = FACE_OUTER_BOUND ( 'NONE', #240, .T. ) ;
#129 = CALENDAR_DATE ( 2021, 8, 11 ) ;
#130 = FACE_BOUND ( 'NONE', #27, .T. ) ;
#131 = DATE_AND_TIME ( #129, #274 ) ;
#132 = ADVANCED_FACE ( 'NONE', ( #121, #275 ), #277, .T. ) ;
#133 = EDGE_LOOP ( 'NONE', ( #265 ) ) ;
#134 = DIRECTION ( 'NONE',  ( 3.491481338843133355E-15, -1.198223107250220118E-16, 1.000000000000000000 ) ) ;
#135 = CIRCLE ( 'NONE', #32, 0.8839745962155624026 ) ;
#136 = ORIENTED_EDGE ( 'NONE', *, *, #65, .T. ) ;
#137 = EDGE_LOOP ( 'NONE', ( #24 ) ) ;
#138 = DIRECTION ( 'NONE',  ( 0.0000000000000000000, -1.000000000000000000, 0.0000000000000000000 ) ) ;
#139 = CIRCLE ( 'NONE', #171, 1.600000000000000089 ) ;
#140 =( NAMED_UNIT ( * ) PLANE_ANGLE_UNIT ( ) SI_UNIT ( $, .RADIAN. ) );
#141 = CYLINDRICAL_SURFACE ( 'NONE', #53, 0.2500000000000003886 ) ;
#142 = CARTESIAN_POINT ( 'NONE',  ( 4.827613401630281785E-15, -1.656763238671897085E-16, 1.382683432365089393 ) ) ;
#143 = DIRECTION ( 'NONE',  ( 3.491481338843133355E-15, -1.224646799147353454E-16, 1.000000000000000000 ) ) ;
#144 = LOCAL_TIME ( 15, 12, 32.00000000000000000, #205 ) ;
#145 = DIRECTION ( 'NONE',  ( 0.0000000000000000000, -1.000000000000000000, 0.0000000000000000000 ) ) ;
#146 = CARTESIAN_POINT ( 'NONE',  ( 0.0000000000000000000, 0.0000000000000000000, 0.0000000000000000000 ) ) ;
#147 = PRODUCT_DEFINITION ( 'UNKNOWN', '', #60, #61 ) ;
#148 = FACE_OUTER_BOUND ( 'NONE', #113, .T. ) ;
#149 = DIRECTION ( 'NONE',  ( 3.491481338843133355E-15, -1.198223107250220118E-16, 1.000000000000000000 ) ) ;
#150 = SECURITY_CLASSIFICATION_LEVEL ( 'unclassified' ) ;
#151 = CC_DESIGN_APPROVAL ( #97, ( #232 ) ) ;
#152 = CALENDAR_DATE ( 2021, 8, 11 ) ;
#153 = PERSON_AND_ORGANIZATION ( #247, #69 ) ;
#154 = APPROVAL ( #66, 'UNSPECIFIED' ) ;
#155 = ADVANCED_FACE ( 'NONE', ( #100 ), #81, .F. ) ;
#156 = VERTEX_POINT ( 'NONE', #103 ) ;
#157 = EDGE_CURVE ( 'NONE', #51, #51, #215, .T. ) ;
#158 = ORIENTED_EDGE ( 'NONE', *, *, #213, .T. ) ;
#159 = AXIS2_PLACEMENT_3D ( 'NONE', #146, #259, #16 ) ;
#160 = CC_DESIGN_PERSON_AND_ORGANIZATION_ASSIGNMENT ( #296, #295, ( #177 ) ) ;
#161 = EDGE_LOOP ( 'NONE', ( #188 ) ) ;
#162 = DIRECTION ( 'NONE',  ( 0.0000000000000000000, 1.000000000000000000, 0.0000000000000000000 ) ) ;
#163 = CARTESIAN_POINT ( 'NONE',  ( 4.827613401630281785E-15, -0.3261204674887147603, 1.382683432365089393 ) ) ;
#164 = ADVANCED_FACE ( 'NONE', ( #119, #10 ), #261, .F. ) ;
#165 = DIRECTION ( 'NONE',  ( -4.242585384075354789E-31, -1.000000000000000000, -1.198223107250220118E-16 ) ) ;
#166 = CIRCLE ( 'NONE', #250, 1.999999999999998668 ) ;
#167 = DIRECTION ( 'NONE',  ( 3.491481338843133355E-15, -1.224646799147353454E-16, 1.000000000000000000 ) ) ;
#168 = CARTESIAN_POINT ( 'NONE',  ( 2.455563260450337867E-14, -8.427118332991551518E-16, 7.033012701892211282 ) ) ;
#169 = EDGE_CURVE ( 'NONE', #268, #268, #139, .T. ) ;
#170 = DIRECTION ( 'NONE',  ( 0.0000000000000000000, -1.000000000000000000, 0.0000000000000000000 ) ) ;
#171 = AXIS2_PLACEMENT_3D ( 'NONE', #39, #197, #162 ) ;
#172 = CARTESIAN_POINT ( 'NONE',  ( 3.491481338843129805E-15, -2.168404344971011826E-16, 0.9999999999999988898 ) ) ;
#173 = CALENDAR_DATE ( 2021, 8, 11 ) ;
#174 = DIRECTION ( 'NONE',  ( 0.0000000000000000000, -1.000000000000000000, 0.0000000000000000000 ) ) ;
#175 = PERSON_AND_ORGANIZATION ( #247, #69 ) ;
#176 = APPROVAL_STATUS ( 'not_yet_approved' ) ;
#177 = PRODUCT ( '983250', '983250', '', ( #229 ) ) ;
#178 = DIRECTION ( 'NONE',  ( -4.275831445896959482E-31, -1.000000000000000000, -1.224646799147353454E-16 ) ) ;
#179 = APPLICATION_PROTOCOL_DEFINITION ( 'international standard', 'config_control_design', 1994, #21 ) ;
#180 = ADVANCED_FACE ( 'NONE', ( #57, #218 ), #90, .T. ) ;
#181 = EDGE_LOOP ( 'NONE', ( #235 ) ) ;
#182 = PERSON_AND_ORGANIZATION_ROLE ( 'classification_officer' ) ;
#183 = EDGE_LOOP ( 'NONE', ( #158 ) ) ;
#184 = VERTEX_POINT ( 'NONE', #112 ) ;
#185 = FACE_OUTER_BOUND ( 'NONE', #47, .T. ) ;
#186 = ADVANCED_FACE ( 'NONE', ( #76 ), #219, .F. ) ;
#187 = LOCAL_TIME ( 15, 12, 32.00000000000000000, #202 ) ;
#188 = ORIENTED_EDGE ( 'NONE', *, *, #207, .F. ) ;
#189 = DIRECTION ( 'NONE',  ( -3.491481338843133355E-15, 1.224646799147353454E-16, -1.000000000000000000 ) ) ;
#190 = EDGE_CURVE ( 'NONE', #114, #114, #38, .T. ) ;
#191 = DIRECTION ( 'NONE',  ( 0.0000000000000000000, -1.000000000000000000, 0.0000000000000000000 ) ) ;
#192 = DIRECTION ( 'NONE',  ( 3.491481338843133355E-15, -1.198223107250220118E-16, 1.000000000000000000 ) ) ;
#193 = AXIS2_PLACEMENT_3D ( 'NONE', #75, #143, #117 ) ;
#194 = MANIFOLD_SOLID_BREP ( 'Corps-Déplacer/Copier1[1]', #71 ) ;
#195 = DIRECTION ( 'NONE',  ( 3.491481338843133355E-15, -1.198223107250220118E-16, 1.000000000000000000 ) ) ;
#196 = CARTESIAN_POINT ( 'NONE',  ( 3.491481338843130989E-15, -0.2500000000000008882, 0.9999999999999993339 ) ) ;
#197 = DIRECTION ( 'NONE',  ( -3.491481338843133355E-15, 1.224646799147353454E-16, -1.000000000000000000 ) ) ;
#198 = CARTESIAN_POINT ( 'NONE',  ( 3.491481338843130989E-15, -1.198223107250219378E-16, 0.9999999999999993339 ) ) ;
#199 = PERSON_AND_ORGANIZATION ( #247, #69 ) ;
#200 = AXIS2_PLACEMENT_3D ( 'NONE', #111, #109, #92 ) ;
#201 = DIRECTION ( 'NONE',  ( 4.275831445896958607E-31, 1.000000000000000000, 1.224646799147353700E-16 ) ) ;
#202 = COORDINATED_UNIVERSAL_TIME_OFFSET ( 1, 0, .AHEAD. ) ;
#203 = PERSON_AND_ORGANIZATION_ROLE ( 'design_supplier' ) ;
#204 = AXIS2_PLACEMENT_3D ( 'NONE', #9, #167, #244 ) ;
#205 = COORDINATED_UNIVERSAL_TIME_OFFSET ( 1, 0, .AHEAD. ) ;
#206 = DIRECTION ( 'NONE',  ( 3.491481338843133355E-15, -1.198223107250220118E-16, 1.000000000000000000 ) ) ;
#207 = EDGE_CURVE ( 'NONE', #236, #236, #135, .T. ) ;
#208 = PERSON_AND_ORGANIZATION ( #247, #69 ) ;
#209 = EDGE_LOOP ( 'NONE', ( #46 ) ) ;
#210 = LOCAL_TIME ( 15, 12, 32.00000000000000000, #41 ) ;
#211 = EDGE_LOOP ( 'NONE', ( #136 ) ) ;
#212 = ORIENTED_EDGE ( 'NONE', *, *, #74, .F. ) ;
#213 = EDGE_CURVE ( 'NONE', #242, #242, #284, .T. ) ;
#214 = ORIENTED_EDGE ( 'NONE', *, *, #254, .T. ) ;
#215 = CIRCLE ( 'NONE', #54, 0.7500000000000003331 ) ;
#216 = FACE_OUTER_BOUND ( 'NONE', #181, .T. ) ;
#217 = EDGE_CURVE ( 'NONE', #5, #5, #108, .T. ) ;
#218 = FACE_OUTER_BOUND ( 'NONE', #29, .T. ) ;
#219 = PLANE ( 'NONE',  #204 ) ;
#220 = ADVANCED_FACE ( 'NONE', ( #115, #216 ), #7, .T. ) ;
#221 = CARTESIAN_POINT ( 'NONE',  ( 2.455563260450337867E-14, -8.427118332991551518E-16, 7.033012701892211282 ) ) ;
#222 = CARTESIAN_POINT ( 'NONE',  ( -2.091786809367389002E-31, -0.2500000000000000000, -5.991115536251100589E-17 ) ) ;
#223 = DIRECTION ( 'NONE',  ( 0.0000000000000000000, -1.000000000000000000, 0.0000000000000000000 ) ) ;
#224 = DATE_AND_TIME ( #278, #210 ) ;
#225 = DIRECTION ( 'NONE',  ( 0.0000000000000000000, 1.000000000000000000, 0.0000000000000000000 ) ) ;
#226 = DATE_TIME_ROLE ( 'creation_date' ) ;
#227 = ADVANCED_FACE ( 'NONE', ( #128, #130 ), #84, .T. ) ;
#228 = AXIS2_PLACEMENT_3D ( 'NONE', #172, #231, #178 ) ;
#229 = MECHANICAL_CONTEXT ( 'NONE', #21, 'mechanical' ) ;
#230 = FACE_OUTER_BOUND ( 'NONE', #281, .T. ) ;
#231 = DIRECTION ( 'NONE',  ( 3.491481338843133355E-15, -1.224646799147353454E-16, 1.000000000000000000 ) ) ;
#232 = SECURITY_CLASSIFICATION ( '', '', #150 ) ;
#233 = APPROVAL_DATE_TIME ( #131, #97 ) ;
#234 = ADVANCED_FACE ( 'NONE', ( #148 ), #276, .T. ) ;
#235 = ORIENTED_EDGE ( 'NONE', *, *, #74, .T. ) ;
#236 = VERTEX_POINT ( 'NONE', #23 ) ;
#237 = DIRECTION ( 'NONE',  ( -4.183573618734778004E-31, -1.000000000000000000, -1.198223107250220118E-16 ) ) ;
#238 = AXIS2_PLACEMENT_3D ( 'NONE', #62, #192, #145 ) ;
#239 = EDGE_LOOP ( 'NONE', ( #107 ) ) ;
#240 = EDGE_LOOP ( 'NONE', ( #70 ) ) ;
#241 = ORIENTED_EDGE ( 'NONE', *, *, #254, .F. ) ;
#242 = VERTEX_POINT ( 'NONE', #222 ) ;
#243 = AXIS2_PLACEMENT_3D ( 'NONE', #116, #291, #165 ) ;
#244 = DIRECTION ( 'NONE',  ( -4.275831445896959482E-31, -1.000000000000000000, -1.224646799147353454E-16 ) ) ;
#245 = DIRECTION ( 'NONE',  ( 0.0000000000000000000, -1.000000000000000000, 0.0000000000000000000 ) ) ;
#246 = DIRECTION ( 'NONE',  ( 3.491481338843133355E-15, -1.198223107250220118E-16, 1.000000000000000000 ) ) ;
#247 = PERSON ( 'UNSPECIFIED', 'UNSPECIFIED', 'UNSPECIFIED', ('UNSPECIFIED'), ('UNSPECIFIED'), ('UNSPECIFIED') ) ;
#248 = AXIS2_PLACEMENT_3D ( 'NONE', #28, #134, #237 ) ;
#249 = DIRECTION ( 'NONE',  ( 3.491481338843133355E-15, -1.198223107250220118E-16, 1.000000000000000000 ) ) ;
#250 = AXIS2_PLACEMENT_3D ( 'NONE', #168, #293, #245 ) ;
#251 = CARTESIAN_POINT ( 'NONE',  ( 3.491481338843130989E-15, -0.2500000000000008882, 0.9999999999999993339 ) ) ;
#252 = CARTESIAN_POINT ( 'NONE',  ( 1.780655482809998327E-14, -6.110937846976124030E-16, 5.100000000000001421 ) ) ;
#253 = PERSON_AND_ORGANIZATION ( #247, #69 ) ;
#254 = EDGE_CURVE ( 'NONE', #289, #289, #43, .T. ) ;
#255 = APPROVAL_DATE_TIME ( #224, #101 ) ;
#256 = APPROVAL_PERSON_ORGANIZATION ( #123, #101, #68 ) ;
#257 = APPROVAL_DATE_TIME ( #122, #154 ) ;
#258 = APPROVAL_STATUS ( 'not_yet_approved' ) ;
#259 = DIRECTION ( 'NONE',  ( 0.0000000000000000000, 0.0000000000000000000, 1.000000000000000000 ) ) ;
#260 = FACE_OUTER_BOUND ( 'NONE', #211, .T. ) ;
#261 = TOROIDAL_SURFACE ( 'NONE', #243, 1.250000000000000444, 0.9999999999999995559 ) ;
#262 = EDGE_LOOP ( 'NONE', ( #94 ) ) ;
#263 = FACE_OUTER_BOUND ( 'NONE', #161, .T. ) ;
#264 = AXIS2_PLACEMENT_3D ( 'NONE', #20, #206, #300 ) ;
#265 = ORIENTED_EDGE ( 'NONE', *, *, #157, .T. ) ;
#266 = ADVANCED_FACE ( 'NONE', ( #260, #230 ), #104, .T. ) ;
#267 = EDGE_LOOP ( 'NONE', ( #22 ) ) ;
#268 = VERTEX_POINT ( 'NONE', #73 ) ;
#269 = AXIS2_PLACEMENT_3D ( 'NONE', #96, #56, #40 ) ;
#270 = AXIS2_PLACEMENT_3D ( 'NONE', #64, #126, #225 ) ;
#271 = PLANE ( 'NONE',  #193 ) ;
#272 = CARTESIAN_POINT ( 'NONE',  ( 1.222018468595096801E-13, 1.199807826129480202E-32, 35.00000000000000000 ) ) ;
#273 = DIRECTION ( 'NONE',  ( 3.491481338843133355E-15, -1.198223107250220118E-16, 1.000000000000000000 ) ) ;
#274 = LOCAL_TIME ( 15, 12, 32.00000000000000000, #44 ) ;
#275 = FACE_OUTER_BOUND ( 'NONE', #303, .T. ) ;
#276 = PLANE ( 'NONE',  #228 ) ;
#277 = CONICAL_SURFACE ( 'NONE', #294, 1.999999999999998668, 0.5235987755983001479 ) ;
#278 = CALENDAR_DATE ( 2021, 8, 11 ) ;
#279 = FACE_OUTER_BOUND ( 'NONE', #133, .T. ) ;
#280 = CC_DESIGN_PERSON_AND_ORGANIZATION_ASSIGNMENT ( #199, #42, ( #60 ) ) ;
#281 = EDGE_LOOP ( 'NONE', ( #110 ) ) ;
#282 = EDGE_LOOP ( 'NONE', ( #285 ) ) ;
#283 = CIRCLE ( 'NONE', #200, 2.000000000000000000 ) ;
#284 = CIRCLE ( 'NONE', #124, 0.2500000000000000000 ) ;
#285 = ORIENTED_EDGE ( 'NONE', *, *, #213, .F. ) ;
#286 = DIRECTION ( 'NONE',  ( 3.491481338843133355E-15, -1.198223107250220118E-16, 1.000000000000000000 ) ) ;
#287 =( LENGTH_UNIT ( ) NAMED_UNIT ( * ) SI_UNIT ( .MILLI., .METRE. ) );
#288 = DIRECTION ( 'NONE',  ( -3.491481338843133355E-15, 1.224646799147353454E-16, -1.000000000000000000 ) ) ;
#289 = VERTEX_POINT ( 'NONE', #251 ) ;
#290 = LOCAL_TIME ( 15, 12, 32.00000000000000000, #86 ) ;
#291 = DIRECTION ( 'NONE',  ( 3.491481338843133355E-15, -1.198223107250220118E-16, 1.000000000000000000 ) ) ;
#292 = CARTESIAN_POINT ( 'NONE',  ( 1.606081415867841343E-14, -5.511826293351012246E-16, 4.599999999999999645 ) ) ;
#293 = DIRECTION ( 'NONE',  ( 3.491481338843133355E-15, -1.198223107250220118E-16, 1.000000000000000000 ) ) ;
#294 = AXIS2_PLACEMENT_3D ( 'NONE', #221, #35, #223 ) ;
#295 = PERSON_AND_ORGANIZATION_ROLE ( 'design_owner' ) ;
#296 = PERSON_AND_ORGANIZATION ( #247, #69 ) ;
#297 =( GEOMETRIC_REPRESENTATION_CONTEXT ( 3 ) GLOBAL_UNCERTAINTY_ASSIGNED_CONTEXT ( ( #83 ) ) GLOBAL_UNIT_ASSIGNED_CONTEXT ( ( #287, #140, #77 ) ) REPRESENTATION_CONTEXT ( 'NONE', 'WORKASPACE' ) );
#298 = PRODUCT_RELATED_PRODUCT_CATEGORY ( 'detail', '', ( #177 ) ) ;
#299 = CALENDAR_DATE ( 2021, 8, 11 ) ;
#300 = DIRECTION ( 'NONE',  ( -4.183573618734778879E-31, -1.000000000000000000, -1.198223107250220364E-16 ) ) ;
#301 = ORIENTED_EDGE ( 'NONE', *, *, #169, .F. ) ;
#302 = AXIS2_PLACEMENT_3D ( 'NONE', #272, #189, #102 ) ;
#303 = EDGE_LOOP ( 'NONE', ( #212 ) ) ;
ENDSEC;
END-ISO-10303-21;
