ISO-10303-21;
HEADER;
FILE_DESCRIPTION (( 'STEP AP203' ),
    '1' );
FILE_NAME ('983079.step',
    '2021-12-02T07:09:13',
    ( '' ),
    ( '' ),
    'SwSTEP 2.0',
    'SolidWorks 2019',
    '' );
FILE_SCHEMA (( 'CONFIG_CONTROL_DESIGN' ));
ENDSEC;

DATA;
#1 = DIRECTION ( 'NONE',  ( 3.491481338843133355E-15, -1.224646799147353207E-16, 1.000000000000000000 ) ) ;
#2 = CARTESIAN_POINT ( 'NONE',  ( 1.745740669421566993E-14, 0.1499999999999982181, 5.000000000000000888 ) ) ;
#3 = CARTESIAN_POINT ( 'NONE',  ( 4.479992253103485495E-14, 1.499999999999994005, 12.83120778353604408 ) ) ;
#4 =( NAMED_UNIT ( * ) PLANE_ANGLE_UNIT ( ) SI_UNIT ( $, .RADIAN. ) );
#5 = EDGE_CURVE ( 'NONE', #120, #120, #97, .T. ) ;
#6 = AXIS2_PLACEMENT_3D ( 'NONE', #99, #33, #164 ) ;
#7 = PLANE ( 'NONE',  #285 ) ;
#8 = CARTESIAN_POINT ( 'NONE',  ( 1.656143848085266214E-31, 0.08500000000000071387, 4.743384504624081899E-17 ) ) ;
#9 = DIRECTION ( 'NONE',  ( 0.0000000000000000000, 1.000000000000000000, 0.0000000000000000000 ) ) ;
#10 = ORIENTED_EDGE ( 'NONE', *, *, #255, .T. ) ;
#11 = VERTEX_POINT ( 'NONE', #195 ) ;
#12 = DIRECTION ( 'NONE',  ( 0.0000000000000000000, 1.000000000000000000, 0.0000000000000000000 ) ) ;
#13 = COORDINATED_UNIVERSAL_TIME_OFFSET ( 1, 0, .AHEAD. ) ;
#14 = CARTESIAN_POINT ( 'NONE',  ( 0.0000000000000000000, 0.0000000000000000000, 0.0000000000000000000 ) ) ;
#15 = CARTESIAN_POINT ( 'NONE',  ( 1.292698175184021694E-31, -4.534174835450445216E-33, 3.702434725348822884E-17 ) ) ;
#16 = PERSON_AND_ORGANIZATION_ROLE ( 'creator' ) ;
#17 = ORIENTED_EDGE ( 'NONE', *, *, #279, .F. ) ;
#18 = PERSON_AND_ORGANIZATION ( #151, #140 ) ;
#19 = AXIS2_PLACEMENT_3D ( 'NONE', #159, #245, #196 ) ;
#20 = ORIENTED_EDGE ( 'NONE', *, *, #181, .T. ) ;
#21 = CYLINDRICAL_SURFACE ( 'NONE', #258, 0.1849999999999993872 ) ;
#22 = EDGE_LOOP ( 'NONE', ( #93 ) ) ;
#23 = CC_DESIGN_PERSON_AND_ORGANIZATION_ASSIGNMENT ( #18, #180, ( #280 ) ) ;
#24 = ADVANCED_FACE ( 'NONE', ( #201 ), #299, .T. ) ;
#25 = CIRCLE ( 'NONE', #236, 0.1499999999999988565 ) ;
#26 = CONICAL_SURFACE ( 'NONE', #296, 0.1849999999999991929, 0.7853981633974412846 ) ;
#27 = DIRECTION ( 'NONE',  ( -4.275831445896958607E-31, -1.000000000000000000, -1.224646799147353207E-16 ) ) ;
#28 = PRODUCT_DEFINITION ( 'UNKNOWN', '', #280, #71 ) ;
#29 = DIRECTION ( 'NONE',  ( -3.491481338843133355E-15, 1.224646799147353207E-16, -1.000000000000000000 ) ) ;
#30 = CC_DESIGN_APPROVAL ( #184, ( #280 ) ) ;
#31 = CARTESIAN_POINT ( 'NONE',  ( 1.068610382406882695E-14, 0.1499999999999993561, 3.060621778264911885 ) ) ;
#32 = AXIS2_PLACEMENT_3D ( 'NONE', #214, #211, #142 ) ;
#33 = DIRECTION ( 'NONE',  ( -3.491481338843133355E-15, 1.224646799147353207E-16, -1.000000000000000000 ) ) ;
#34 = EDGE_LOOP ( 'NONE', ( #69 ) ) ;
#35 = DIRECTION ( 'NONE',  ( 4.275831445896958607E-31, 1.000000000000000000, 1.224646799147353454E-16 ) ) ;
#36 = CARTESIAN_POINT ( 'NONE',  ( 1.047444401652940007E-14, -3.673940397442059868E-16, 3.000000000000000000 ) ) ;
#37 = DIRECTION ( 'NONE',  ( -3.491481338843133355E-15, 1.224646799147353207E-16, -1.000000000000000000 ) ) ;
#38 = DIRECTION ( 'NONE',  ( 0.0000000000000000000, 1.000000000000000000, 0.0000000000000000000 ) ) ;
#39 = ORIENTED_EDGE ( 'NONE', *, *, #181, .F. ) ;
#40 = APPROVAL_ROLE ( '' ) ;
#41 = CIRCLE ( 'NONE', #88, 0.08500000000000071387 ) ;
#42 = ORIENTED_EDGE ( 'NONE', *, *, #45, .T. ) ;
#43 = EDGE_LOOP ( 'NONE', ( #251 ) ) ;
#44 = PERSON_AND_ORGANIZATION ( #151, #140 ) ;
#45 = EDGE_CURVE ( 'NONE', #239, #239, #166, .T. ) ;
#46 = CIRCLE ( 'NONE', #72, 0.1849999999999995537 ) ;
#47 = AXIS2_PLACEMENT_3D ( 'NONE', #105, #206, #171 ) ;
#48 = CC_DESIGN_DATE_AND_TIME_ASSIGNMENT ( #277, #175, ( #101 ) ) ;
#49 = VERTEX_POINT ( 'NONE', #284 ) ;
#50 = PLANE ( 'NONE',  #158 ) ;
#51 = EDGE_CURVE ( 'NONE', #84, #84, #41, .T. ) ;
#52 = CLOSED_SHELL ( 'NONE', ( #291, #75, #139, #24 ) ) ;
#53 = FACE_OUTER_BOUND ( 'NONE', #222, .T. ) ;
#54 = APPROVAL_STATUS ( 'not_yet_approved' ) ;
#55 = DIRECTION ( 'NONE',  ( 4.275831445896959482E-31, 1.000000000000000000, 1.224646799147353207E-16 ) ) ;
#56 = ADVANCED_BREP_SHAPE_REPRESENTATION ( '983079', ( #276, #73, #177 ), #155 ) ;
#57 = DATE_AND_TIME ( #136, #283 ) ;
#58 = CARTESIAN_POINT ( 'NONE',  ( 6.463490875920108468E-32, -2.267087417725222608E-33, 1.851217362674411442E-17 ) ) ;
#59 = MECHANICAL_CONTEXT ( 'NONE', #86, 'mechanical' ) ;
#60 = DIRECTION ( 'NONE',  ( 4.275831445896958607E-31, 1.000000000000000000, 1.224646799147353207E-16 ) ) ;
#61 = CALENDAR_DATE ( 2021, 2, 12 ) ;
#62 = ORIENTED_EDGE ( 'NONE', *, *, #5, .T. ) ;
#63 = CARTESIAN_POINT ( 'NONE',  ( 1.068610382406882695E-14, -3.748180664152805075E-16, 3.060621778264911885 ) ) ;
#64 = PRODUCT_RELATED_PRODUCT_CATEGORY ( 'detail', '', ( #266 ) ) ;
#65 = DIRECTION ( 'NONE',  ( -3.491481338843133355E-15, 1.224646799147353207E-16, -1.000000000000000000 ) ) ;
#66 = LOCAL_TIME ( 8, 9, 13.00000000000000000, #13 ) ;
#67 = AXIS2_PLACEMENT_3D ( 'NONE', #169, #127, #104 ) ;
#68 = CC_DESIGN_DATE_AND_TIME_ASSIGNMENT ( #145, #219, ( #28 ) ) ;
#69 = ORIENTED_EDGE ( 'NONE', *, *, #92, .F. ) ;
#70 = SECURITY_CLASSIFICATION_LEVEL ( 'unclassified' ) ;
#71 = DESIGN_CONTEXT ( 'detailed design', #246, 'design' ) ;
#72 = AXIS2_PLACEMENT_3D ( 'NONE', #36, #295, #12 ) ;
#73 = MANIFOLD_SOLID_BREP ( 'Corps-Déplacer/Copier1[2]', #52 ) ;
#74 = EDGE_LOOP ( 'NONE', ( #83 ) ) ;
#75 = ADVANCED_FACE ( 'NONE', ( #198, #132 ), #26, .T. ) ;
#76 = FACE_OUTER_BOUND ( 'NONE', #87, .T. ) ;
#77 = DIRECTION ( 'NONE',  ( 1.000000000000000000, 0.0000000000000000000, 0.0000000000000000000 ) ) ;
#78 = FACE_OUTER_BOUND ( 'NONE', #303, .T. ) ;
#79 = PERSON_AND_ORGANIZATION ( #151, #140 ) ;
#80 = CYLINDRICAL_SURFACE ( 'NONE', #115, 0.1499999999999993006 ) ;
#81 = VERTEX_POINT ( 'NONE', #231 ) ;
#82 = DIRECTION ( 'NONE',  ( 0.0000000000000000000, 1.000000000000000000, 0.0000000000000000000 ) ) ;
#83 = ORIENTED_EDGE ( 'NONE', *, *, #130, .F. ) ;
#84 = VERTEX_POINT ( 'NONE', #8 ) ;
#85 = CALENDAR_DATE ( 2021, 2, 12 ) ;
#86 = APPLICATION_CONTEXT ( 'configuration controlled 3d designs of mechanical parts and assemblies' ) ;
#87 = EDGE_LOOP ( 'NONE', ( #137 ) ) ;
#88 = AXIS2_PLACEMENT_3D ( 'NONE', #15, #37, #60 ) ;
#89 = CARTESIAN_POINT ( 'NONE',  ( 1.745740669421566993E-14, -4.336808689942017736E-16, 5.000000000000000888 ) ) ;
#90 = PRODUCT_DEFINITION_SHAPE ( 'NONE', 'NONE',  #28 ) ;
#91 = EDGE_LOOP ( 'NONE', ( #17 ) ) ;
#92 = EDGE_CURVE ( 'NONE', #49, #49, #46, .T. ) ;
#93 = ORIENTED_EDGE ( 'NONE', *, *, #255, .F. ) ;
#94 = EDGE_LOOP ( 'NONE', ( #154 ) ) ;
#95 = APPROVAL_PERSON_ORGANIZATION ( #160, #138, #40 ) ;
#96 = DIRECTION ( 'NONE',  ( -3.491481338843133355E-15, 1.224646799147353207E-16, -1.000000000000000000 ) ) ;
#97 = CIRCLE ( 'NONE', #302, 1.499999999999995559 ) ;
#98 = ADVANCED_FACE ( 'NONE', ( #220, #129 ), #205, .F. ) ;
#99 = CARTESIAN_POINT ( 'NONE',  ( 1.326762908760390423E-13, -4.653657836759941941E-15, 38.00000000000000000 ) ) ;
#100 = CARTESIAN_POINT ( 'NONE',  ( 3.491481338843130397E-16, -1.224646799147352036E-17, 0.09999999999999990841 ) ) ;
#101 = SECURITY_CLASSIFICATION ( '', '', #70 ) ;
#102 = CONICAL_SURFACE ( 'NONE', #6, 1.199999999999998623, 0.7853981633974453924 ) ;
#103 = DATE_AND_TIME ( #209, #210 ) ;
#104 = DIRECTION ( 'NONE',  ( 0.0000000000000000000, -1.000000000000000000, 0.0000000000000000000 ) ) ;
#105 = CARTESIAN_POINT ( 'NONE',  ( 1.316288464743861212E-13, -4.616918432785521081E-15, 37.69999999999999574 ) ) ;
#106 = COORDINATED_UNIVERSAL_TIME_OFFSET ( 1, 0, .AHEAD. ) ;
#107 = FACE_BOUND ( 'NONE', #43, .T. ) ;
#108 = DIRECTION ( 'NONE',  ( -3.491481338843133355E-15, 1.224646799147353207E-16, -1.000000000000000000 ) ) ;
#109 = ADVANCED_FACE ( 'NONE', ( #270, #202 ), #118, .T. ) ;
#110 = PERSON_AND_ORGANIZATION ( #151, #140 ) ;
#111 = DIRECTION ( 'NONE',  ( 4.403808768322305990E-31, 1.000000000000000000, 1.224646799147353207E-16 ) ) ;
#112 = APPROVAL_DATE_TIME ( #293, #184 ) ;
#113 = ORIENTED_EDGE ( 'NONE', *, *, #279, .T. ) ;
#114 = LOCAL_TIME ( 8, 9, 13.00000000000000000, #124 ) ;
#115 = AXIS2_PLACEMENT_3D ( 'NONE', #165, #261, #55 ) ;
#116 = CC_DESIGN_PERSON_AND_ORGANIZATION_ASSIGNMENT ( #133, #16, ( #280 ) ) ;
#117 = CC_DESIGN_PERSON_AND_ORGANIZATION_ASSIGNMENT ( #79, #168, ( #28 ) ) ;
#118 = CONICAL_SURFACE ( 'NONE', #278, 0.1499999999999997446, 0.5235987755982873804 ) ;
#119 = APPLICATION_PROTOCOL_DEFINITION ( 'international standard', 'config_control_design', 1994, #86 ) ;
#120 = VERTEX_POINT ( 'NONE', #3 ) ;
#121 = APPLICATION_PROTOCOL_DEFINITION ( 'international standard', 'config_control_design', 1994, #246 ) ;
#122 = PLANE ( 'NONE',  #32 ) ;
#123 = CIRCLE ( 'NONE', #212, 1.199999999999998623 ) ;
#124 = COORDINATED_UNIVERSAL_TIME_OFFSET ( 1, 0, .AHEAD. ) ;
#125 = DIRECTION ( 'NONE',  ( -3.491481338843133355E-15, 1.224646799147353207E-16, -1.000000000000000000 ) ) ;
#126 = CARTESIAN_POINT ( 'NONE',  ( 1.326762908760390423E-13, 1.199999999999993960, 38.00000000000000000 ) ) ;
#127 = DIRECTION ( 'NONE',  ( 3.491481338843133355E-15, -1.224646799147353207E-16, 1.000000000000000000 ) ) ;
#128 = ORIENTED_EDGE ( 'NONE', *, *, #92, .T. ) ;
#129 = FACE_OUTER_BOUND ( 'NONE', #292, .T. ) ;
#130 = EDGE_CURVE ( 'NONE', #11, #11, #248, .T. ) ;
#131 = EDGE_LOOP ( 'NONE', ( #226 ) ) ;
#132 = FACE_OUTER_BOUND ( 'NONE', #94, .T. ) ;
#133 = PERSON_AND_ORGANIZATION ( #151, #140 ) ;
#134 = EDGE_LOOP ( 'NONE', ( #10 ) ) ;
#135 = FACE_OUTER_BOUND ( 'NONE', #131, .T. ) ;
#136 = CALENDAR_DATE ( 2021, 2, 12 ) ;
#137 = ORIENTED_EDGE ( 'NONE', *, *, #51, .T. ) ;
#138 = APPROVAL ( #200, 'UNSPECIFIED' ) ;
#139 = ADVANCED_FACE ( 'NONE', ( #135, #268 ), #21, .T. ) ;
#140 = ORGANIZATION ( 'UNSPECIFIED', 'UNSPECIFIED', '' ) ;
#141 = VERTEX_POINT ( 'NONE', #126 ) ;
#142 = DIRECTION ( 'NONE',  ( 4.275831445896958607E-31, 1.000000000000000000, 1.224646799147353207E-16 ) ) ;
#143 = VERTEX_POINT ( 'NONE', #31 ) ;
#144 = FACE_OUTER_BOUND ( 'NONE', #294, .T. ) ;
#145 = DATE_AND_TIME ( #260, #114 ) ;
#146 = FACE_OUTER_BOUND ( 'NONE', #274, .T. ) ;
#147 = LOCAL_TIME ( 8, 9, 13.00000000000000000, #106 ) ;
#148 = CIRCLE ( 'NONE', #189, 0.1849999999999991929 ) ;
#149 = COORDINATED_UNIVERSAL_TIME_OFFSET ( 1, 0, .AHEAD. ) ;
#150 = DIRECTION ( 'NONE',  ( 4.275831445896958607E-31, 1.000000000000000000, 1.224646799147353207E-16 ) ) ;
#151 = PERSON ( 'UNSPECIFIED', 'UNSPECIFIED', 'UNSPECIFIED', ('UNSPECIFIED'), ('UNSPECIFIED'), ('UNSPECIFIED') ) ;
#152 = DIRECTION ( 'NONE',  ( -5.205216065911470597E-31, -1.000000000000000000, -1.465138070926363633E-16 ) ) ;
#153 = SHAPE_DEFINITION_REPRESENTATION ( #90, #56 ) ;
#154 = ORIENTED_EDGE ( 'NONE', *, *, #167, .T. ) ;
#155 =( GEOMETRIC_REPRESENTATION_CONTEXT ( 3 ) GLOBAL_UNCERTAINTY_ASSIGNED_CONTEXT ( ( #249 ) ) GLOBAL_UNIT_ASSIGNED_CONTEXT ( ( #213, #4, #263 ) ) REPRESENTATION_CONTEXT ( 'NONE', 'WORKASPACE' ) );
#156 = ORIENTED_EDGE ( 'NONE', *, *, #5, .F. ) ;
#157 = DIRECTION ( 'NONE',  ( -3.491481338843133355E-15, 1.224646799147353207E-16, -1.000000000000000000 ) ) ;
#158 = AXIS2_PLACEMENT_3D ( 'NONE', #58, #1, #27 ) ;
#159 = CARTESIAN_POINT ( 'NONE',  ( 1.047444401652940007E-14, 1.387277798962209769E-33, 3.000000000000000000 ) ) ;
#160 = PERSON_AND_ORGANIZATION ( #151, #140 ) ;
#161 = AXIS2_PLACEMENT_3D ( 'NONE', #89, #298, #111 ) ;
#162 = ADVANCED_FACE ( 'NONE', ( #235, #185 ), #281, .T. ) ;
#163 = VERTEX_POINT ( 'NONE', #289 ) ;
#164 = DIRECTION ( 'NONE',  ( 0.0000000000000000000, 1.000000000000000000, 0.0000000000000000000 ) ) ;
#165 = CARTESIAN_POINT ( 'NONE',  ( 0.0000000000000000000, 0.0000000000000000000, 0.0000000000000000000 ) ) ;
#166 = CIRCLE ( 'NONE', #229, 0.1803844939755795407 ) ;
#167 = EDGE_CURVE ( 'NONE', #81, #81, #148, .T. ) ;
#168 = PERSON_AND_ORGANIZATION_ROLE ( 'creator' ) ;
#169 = CARTESIAN_POINT ( 'NONE',  ( 4.479992253103485495E-14, -1.571369754130202140E-15, 12.83120778353604408 ) ) ;
#170 = APPROVAL_ROLE ( '' ) ;
#171 = DIRECTION ( 'NONE',  ( 0.0000000000000000000, 1.000000000000000000, 0.0000000000000000000 ) ) ;
#172 = DIRECTION ( 'NONE',  ( -3.491481338843133355E-15, 1.224646799147353207E-16, -1.000000000000000000 ) ) ;
#173 = PERSON_AND_ORGANIZATION_ROLE ( 'classification_officer' ) ;
#174 = EDGE_LOOP ( 'NONE', ( #267 ) ) ;
#175 = DATE_TIME_ROLE ( 'classification_date' ) ;
#176 = EDGE_LOOP ( 'NONE', ( #39 ) ) ;
#177 = AXIS2_PLACEMENT_3D ( 'NONE', #192, #228, #77 ) ;
#178 = EDGE_LOOP ( 'NONE', ( #215 ) ) ;
#179 = AXIS2_PLACEMENT_3D ( 'NONE', #290, #125, #9 ) ;
#180 = PERSON_AND_ORGANIZATION_ROLE ( 'design_supplier' ) ;
#181 = EDGE_CURVE ( 'NONE', #216, #216, #25, .T. ) ;
#182 = ADVANCED_FACE ( 'NONE', ( #208, #78 ), #80, .T. ) ;
#183 = AXIS2_PLACEMENT_3D ( 'NONE', #242, #157, #38 ) ;
#184 = APPROVAL ( #221, 'UNSPECIFIED' ) ;
#185 = FACE_OUTER_BOUND ( 'NONE', #194, .T. ) ;
#186 = CC_DESIGN_APPROVAL ( #223, ( #28 ) ) ;
#187 = ADVANCED_FACE ( 'NONE', ( #259, #53 ), #188, .T. ) ;
#188 = CYLINDRICAL_SURFACE ( 'NONE', #204, 1.499999999999996891 ) ;
#189 = AXIS2_PLACEMENT_3D ( 'NONE', #100, #286, #262 ) ;
#190 = PERSON_AND_ORGANIZATION ( #151, #140 ) ;
#191 = DIRECTION ( 'NONE',  ( 3.491481338843133355E-15, -1.224646799147353207E-16, 1.000000000000000000 ) ) ;
#192 = CARTESIAN_POINT ( 'NONE',  ( 0.0000000000000000000, 0.0000000000000000000, 0.0000000000000000000 ) ) ;
#193 = CARTESIAN_POINT ( 'NONE',  ( 1.326762908760390423E-13, -4.653657836759941941E-15, 38.00000000000000000 ) ) ;
#194 = EDGE_LOOP ( 'NONE', ( #62 ) ) ;
#195 = CARTESIAN_POINT ( 'NONE',  ( 1.047444401652940007E-14, 0.1849999999999991929, 3.000000000000000000 ) ) ;
#196 = DIRECTION ( 'NONE',  ( -4.275831445896958607E-31, -1.000000000000000000, -1.224646799147353207E-16 ) ) ;
#197 = DIRECTION ( 'NONE',  ( -3.491481338843133355E-15, 1.224646799147353207E-16, -1.000000000000000000 ) ) ;
#198 = FACE_BOUND ( 'NONE', #174, .T. ) ;
#199 = CLOSED_SHELL ( 'NONE', ( #243, #109, #182, #98, #162, #187, #253, #207 ) ) ;
#200 = APPROVAL_STATUS ( 'not_yet_approved' ) ;
#201 = FACE_OUTER_BOUND ( 'NONE', #74, .T. ) ;
#202 = FACE_BOUND ( 'NONE', #134, .T. ) ;
#203 = CARTESIAN_POINT ( 'NONE',  ( 4.479992253103485495E-14, -1.571369754130202140E-15, 12.83120778353604408 ) ) ;
#204 = AXIS2_PLACEMENT_3D ( 'NONE', #14, #29, #35 ) ;
#205 = TOROIDAL_SURFACE ( 'NONE', #161, 2.149999999999998579, 2.000000000000000444 ) ;
#206 = DIRECTION ( 'NONE',  ( -3.491481338843133355E-15, 1.224646799147353207E-16, -1.000000000000000000 ) ) ;
#207 = ADVANCED_FACE ( 'NONE', ( #144 ), #122, .F. ) ;
#208 = FACE_OUTER_BOUND ( 'NONE', #22, .T. ) ;
#209 = CALENDAR_DATE ( 2021, 2, 12 ) ;
#210 = LOCAL_TIME ( 8, 9, 13.00000000000000000, #149 ) ;
#211 = DIRECTION ( 'NONE',  ( -3.491481338843133355E-15, 1.224646799147353207E-16, -1.000000000000000000 ) ) ;
#212 = AXIS2_PLACEMENT_3D ( 'NONE', #193, #197, #82 ) ;
#213 =( LENGTH_UNIT ( ) NAMED_UNIT ( * ) SI_UNIT ( .MILLI., .METRE. ) );
#214 = CARTESIAN_POINT ( 'NONE',  ( 1.326762908760390423E-13, 8.998558695971067645E-33, 38.00000000000000000 ) ) ;
#215 = ORIENTED_EDGE ( 'NONE', *, *, #45, .F. ) ;
#216 = VERTEX_POINT ( 'NONE', #2 ) ;
#217 = DIRECTION ( 'NONE',  ( 3.491481338843133355E-15, -1.224646799147353207E-16, 1.000000000000000000 ) ) ;
#218 = DIRECTION ( 'NONE',  ( -3.491481338843133355E-15, 1.224646799147353207E-16, -1.000000000000000000 ) ) ;
#219 = DATE_TIME_ROLE ( 'creation_date' ) ;
#220 = FACE_OUTER_BOUND ( 'NONE', #176, .T. ) ;
#221 = APPROVAL_STATUS ( 'not_yet_approved' ) ;
#222 = EDGE_LOOP ( 'NONE', ( #113 ) ) ;
#223 = APPROVAL ( #54, 'UNSPECIFIED' ) ;
#224 = DIRECTION ( 'NONE',  ( 0.0000000000000000000, 1.000000000000000000, 0.0000000000000000000 ) ) ;
#225 = ORIENTED_EDGE ( 'NONE', *, *, #269, .F. ) ;
#226 = ORIENTED_EDGE ( 'NONE', *, *, #167, .F. ) ;
#227 = APPROVAL_PERSON_ORGANIZATION ( #190, #223, #170 ) ;
#228 = DIRECTION ( 'NONE',  ( 0.0000000000000000000, 0.0000000000000000000, 1.000000000000000000 ) ) ;
#229 = AXIS2_PLACEMENT_3D ( 'NONE', #241, #172, #264 ) ;
#230 = FACE_OUTER_BOUND ( 'NONE', #91, .T. ) ;
#231 = CARTESIAN_POINT ( 'NONE',  ( 3.491481338843131383E-16, 0.1849999999999991929, 0.09999999999999993616 ) ) ;
#232 = CARTESIAN_POINT ( 'NONE',  ( 1.745740669421566993E-14, -6.123233995736767268E-16, 5.000000000000000888 ) ) ;
#233 = PERSON_AND_ORGANIZATION ( #151, #140 ) ;
#234 = CC_DESIGN_SECURITY_CLASSIFICATION ( #101, ( #280 ) ) ;
#235 = FACE_BOUND ( 'NONE', #178, .T. ) ;
#236 = AXIS2_PLACEMENT_3D ( 'NONE', #232, #218, #288 ) ;
#237 = EDGE_LOOP ( 'NONE', ( #156 ) ) ;
#238 = PERSON_AND_ORGANIZATION_ROLE ( 'design_owner' ) ;
#239 = VERTEX_POINT ( 'NONE', #257 ) ;
#240 = CARTESIAN_POINT ( 'NONE',  ( 3.491481338843130397E-16, -1.224646799147352036E-17, 0.09999999999999990841 ) ) ;
#241 = CARTESIAN_POINT ( 'NONE',  ( 1.866998543791203065E-14, -6.548549365651905381E-16, 5.347296355333847728 ) ) ;
#242 = CARTESIAN_POINT ( 'NONE',  ( 1.047444401652940007E-14, -3.673940397442059868E-16, 3.000000000000000000 ) ) ;
#243 = ADVANCED_FACE ( 'NONE', ( #146 ), #7, .F. ) ;
#244 = APPROVAL_DATE_TIME ( #57, #138 ) ;
#245 = DIRECTION ( 'NONE',  ( 3.491481338843133355E-15, -1.224646799147353207E-16, 1.000000000000000000 ) ) ;
#246 = APPLICATION_CONTEXT ( 'configuration controlled 3d designs of mechanical parts and assemblies' ) ;
#247 = COORDINATED_UNIVERSAL_TIME_OFFSET ( 1, 0, .AHEAD. ) ;
#248 = CIRCLE ( 'NONE', #183, 0.1849999999999995537 ) ;
#249 = UNCERTAINTY_MEASURE_WITH_UNIT (LENGTH_MEASURE( 1.000000000000000082E-05 ), #213, 'distance_accuracy_value', 'NONE');
#250 = CC_DESIGN_PERSON_AND_ORGANIZATION_ASSIGNMENT ( #110, #173, ( #101 ) ) ;
#251 = ORIENTED_EDGE ( 'NONE', *, *, #269, .T. ) ;
#252 = CC_DESIGN_APPROVAL ( #138, ( #101 ) ) ;
#253 = ADVANCED_FACE ( 'NONE', ( #230, #107 ), #102, .T. ) ;
#254 = CIRCLE ( 'NONE', #179, 0.1499999999999997446 ) ;
#255 = EDGE_CURVE ( 'NONE', #143, #143, #254, .T. ) ;
#256 = DIRECTION ( 'NONE',  ( -4.275831445896958607E-31, -1.000000000000000000, -1.224646799147353207E-16 ) ) ;
#257 = CARTESIAN_POINT ( 'NONE',  ( 1.866998543791203065E-14, 0.1803844939755788745, 5.347296355333847728 ) ) ;
#258 = AXIS2_PLACEMENT_3D ( 'NONE', #275, #108, #150 ) ;
#259 = FACE_OUTER_BOUND ( 'NONE', #237, .T. ) ;
#260 = CALENDAR_DATE ( 2021, 2, 12 ) ;
#261 = DIRECTION ( 'NONE',  ( -3.491481338843133355E-15, 1.224646799147353207E-16, -1.000000000000000000 ) ) ;
#262 = DIRECTION ( 'NONE',  ( 5.205216065911470597E-31, 1.000000000000000000, 1.465138070926363633E-16 ) ) ;
#263 =( NAMED_UNIT ( * ) SI_UNIT ( $, .STERADIAN. ) SOLID_ANGLE_UNIT ( ) );
#264 = DIRECTION ( 'NONE',  ( 0.0000000000000000000, 1.000000000000000000, 0.0000000000000000000 ) ) ;
#265 = APPROVAL_ROLE ( '' ) ;
#266 = PRODUCT ( '983079', '983079', '', ( #59 ) ) ;
#267 = ORIENTED_EDGE ( 'NONE', *, *, #51, .F. ) ;
#268 = FACE_OUTER_BOUND ( 'NONE', #272, .T. ) ;
#269 = EDGE_CURVE ( 'NONE', #141, #141, #123, .T. ) ;
#270 = FACE_OUTER_BOUND ( 'NONE', #34, .T. ) ;
#271 = APPROVAL_PERSON_ORGANIZATION ( #44, #184, #265 ) ;
#272 = EDGE_LOOP ( 'NONE', ( #300 ) ) ;
#273 = CIRCLE ( 'NONE', #47, 1.499999999999998446 ) ;
#274 = EDGE_LOOP ( 'NONE', ( #128 ) ) ;
#275 = CARTESIAN_POINT ( 'NONE',  ( 0.0000000000000000000, 0.0000000000000000000, 0.0000000000000000000 ) ) ;
#276 = MANIFOLD_SOLID_BREP ( 'Corps-Déplacer/Copier1[1]', #199 ) ;
#277 = DATE_AND_TIME ( #61, #147 ) ;
#278 = AXIS2_PLACEMENT_3D ( 'NONE', #63, #96, #224 ) ;
#279 = EDGE_CURVE ( 'NONE', #163, #163, #273, .T. ) ;
#280 = PRODUCT_DEFINITION_FORMATION_WITH_SPECIFIED_SOURCE ( 'ANY', '', #266, .NOT_KNOWN. ) ;
#281 = CONICAL_SURFACE ( 'NONE', #67, 1.499999999999995559, 0.1745329251994260644 ) ;
#282 = CARTESIAN_POINT ( 'NONE',  ( 1.047444401652940007E-14, 1.387277798962209769E-33, 3.000000000000000000 ) ) ;
#283 = LOCAL_TIME ( 8, 9, 13.00000000000000000, #247 ) ;
#284 = CARTESIAN_POINT ( 'NONE',  ( 1.047444401652940007E-14, 0.1849999999999991929, 3.000000000000000000 ) ) ;
#285 = AXIS2_PLACEMENT_3D ( 'NONE', #282, #191, #256 ) ;
#286 = DIRECTION ( 'NONE',  ( -3.491481338843133355E-15, 1.224646799147353207E-16, -1.000000000000000000 ) ) ;
#287 = APPROVAL_DATE_TIME ( #103, #223 ) ;
#288 = DIRECTION ( 'NONE',  ( 0.0000000000000000000, 1.000000000000000000, 0.0000000000000000000 ) ) ;
#289 = CARTESIAN_POINT ( 'NONE',  ( 1.316288464743861212E-13, 1.499999999999994005, 37.69999999999999574 ) ) ;
#290 = CARTESIAN_POINT ( 'NONE',  ( 1.068610382406882695E-14, -3.748180664152805075E-16, 3.060621778264911885 ) ) ;
#291 = ADVANCED_FACE ( 'NONE', ( #76 ), #50, .F. ) ;
#292 = EDGE_LOOP ( 'NONE', ( #42 ) ) ;
#293 = DATE_AND_TIME ( #85, #66 ) ;
#294 = EDGE_LOOP ( 'NONE', ( #225 ) ) ;
#295 = DIRECTION ( 'NONE',  ( -3.491481338843133355E-15, 1.224646799147353207E-16, -1.000000000000000000 ) ) ;
#296 = AXIS2_PLACEMENT_3D ( 'NONE', #240, #217, #152 ) ;
#297 = DIRECTION ( 'NONE',  ( 0.0000000000000000000, 1.000000000000000000, 0.0000000000000000000 ) ) ;
#298 = DIRECTION ( 'NONE',  ( -3.491481338843133355E-15, 1.224646799147353207E-16, -1.000000000000000000 ) ) ;
#299 = PLANE ( 'NONE',  #19 ) ;
#300 = ORIENTED_EDGE ( 'NONE', *, *, #130, .T. ) ;
#301 = CC_DESIGN_PERSON_AND_ORGANIZATION_ASSIGNMENT ( #233, #238, ( #266 ) ) ;
#302 = AXIS2_PLACEMENT_3D ( 'NONE', #203, #65, #297 ) ;
#303 = EDGE_LOOP ( 'NONE', ( #20 ) ) ;
ENDSEC;
END-ISO-10303-21;
