ISO-10303-21;
HEADER;
FILE_DESCRIPTION (( 'STEP AP203' ),
    '1' );
FILE_NAME ('982028.step',
    '2021-11-30T08:32:54',
    ( '' ),
    ( '' ),
    'SwSTEP 2.0',
    'SolidWorks 2019',
    '' );
FILE_SCHEMA (( 'CONFIG_CONTROL_DESIGN' ));
ENDSEC;

DATA;
#1 = DIRECTION ( 'NONE',  ( -3.491481338843133355E-15, 1.224646799147353207E-16, -1.000000000000000000 ) ) ;
#2 = CIRCLE ( 'NONE', #288, 0.9584999999999991305 ) ;
#3 = CARTESIAN_POINT ( 'NONE',  ( 6.405924284287273902E-14, -2.246895775456748746E-15, 18.34729635533384240 ) ) ;
#4 =( LENGTH_UNIT ( ) NAMED_UNIT ( * ) SI_UNIT ( .MILLI., .METRE. ) );
#5 = CC_DESIGN_DATE_AND_TIME_ASSIGNMENT ( #270, #291, ( #207 ) ) ;
#6 = CARTESIAN_POINT ( 'NONE',  ( -1.740610665908860567E-31, 6.105240365607464008E-33, -4.985307085976275056E-17 ) ) ;
#7 = FACE_OUTER_BOUND ( 'NONE', #85, .T. ) ;
#8 = DIRECTION ( 'NONE',  ( 3.491481338843133355E-15, -1.224646799147353207E-16, 1.000000000000000000 ) ) ;
#9 = ADVANCED_FACE ( 'NONE', ( #25, #282 ), #94, .T. ) ;
#10 = APPROVAL_DATE_TIME ( #158, #253 ) ;
#11 = CLOSED_SHELL ( 'NONE', ( #193, #174, #64, #271 ) ) ;
#12 = AXIS2_PLACEMENT_3D ( 'NONE', #211, #143, #258 ) ;
#13 = CC_DESIGN_PERSON_AND_ORGANIZATION_ASSIGNMENT ( #272, #63, ( #207 ) ) ;
#14 = PERSON_AND_ORGANIZATION ( #82, #116 ) ;
#15 = EDGE_LOOP ( 'NONE', ( #226 ) ) ;
#16 = AXIS2_PLACEMENT_3D ( 'NONE', #54, #234, #149 ) ;
#17 = COORDINATED_UNIVERSAL_TIME_OFFSET ( 1, 0, .AHEAD. ) ;
#18 = PRODUCT_DEFINITION_SHAPE ( 'NONE', 'NONE',  #240 ) ;
#19 = CYLINDRICAL_SURFACE ( 'NONE', #141, 1.499999999999999112 ) ;
#20 = ADVANCED_FACE ( 'NONE', ( #161, #91 ), #37, .T. ) ;
#21 = ORIENTED_EDGE ( 'NONE', *, *, #204, .F. ) ;
#22 = CARTESIAN_POINT ( 'NONE',  ( 2.793185071074506684E-14, -9.797174393178825657E-16, 8.000000000000000000 ) ) ;
#23 = PRODUCT_DEFINITION_FORMATION_WITH_SPECIFIED_SOURCE ( 'ANY', '', #296, .NOT_KNOWN. ) ;
#24 = APPLICATION_CONTEXT ( 'configuration controlled 3d designs of mechanical parts and assemblies' ) ;
#25 = FACE_OUTER_BOUND ( 'NONE', #62, .T. ) ;
#26 = DIRECTION ( 'NONE',  ( 0.0000000000000000000, 1.000000000000000000, 0.0000000000000000000 ) ) ;
#27 = PERSON_AND_ORGANIZATION_ROLE ( 'design_owner' ) ;
#28 = CARTESIAN_POINT ( 'NONE',  ( 7.721941054645735674E-14, -2.708492321173282227E-15, 22.11651819168628563 ) ) ;
#29 = AXIS2_PLACEMENT_3D ( 'NONE', #3, #58, #102 ) ;
#30 = APPLICATION_PROTOCOL_DEFINITION ( 'international standard', 'config_control_design', 1994, #303 ) ;
#31 = DIRECTION ( 'NONE',  ( -4.018633165127256138E-31, -1.000000000000000000, -1.131144676562864229E-16 ) ) ;
#32 = CARTESIAN_POINT ( 'NONE',  ( 1.735266225405037467E-13, 1.499999999999995559, 49.70000000000000284 ) ) ;
#33 = ADVANCED_FACE ( 'NONE', ( #160, #180 ), #19, .T. ) ;
#34 = DIRECTION ( 'NONE',  ( -3.491481338843133355E-15, 1.224646799147353207E-16, -1.000000000000000000 ) ) ;
#35 = LOCAL_TIME ( 9, 32, 54.00000000000000000, #156 ) ;
#36 = PERSON_AND_ORGANIZATION ( #82, #116 ) ;
#37 = CONICAL_SURFACE ( 'NONE', #79, 0.9585000000000001297, 0.5235987755983005920 ) ;
#38 = EDGE_CURVE ( 'NONE', #72, #72, #181, .T. ) ;
#39 = LOCAL_TIME ( 9, 32, 54.00000000000000000, #17 ) ;
#40 = ORIENTED_EDGE ( 'NONE', *, *, #297, .F. ) ;
#41 = EDGE_LOOP ( 'NONE', ( #173 ) ) ;
#42 = CC_DESIGN_DATE_AND_TIME_ASSIGNMENT ( #202, #153, ( #240 ) ) ;
#43 = APPROVAL_ROLE ( '' ) ;
#44 = EDGE_LOOP ( 'NONE', ( #275 ) ) ;
#45 = EDGE_LOOP ( 'NONE', ( #40 ) ) ;
#46 = ADVANCED_FACE ( 'NONE', ( #208, #47 ), #148, .T. ) ;
#47 = FACE_BOUND ( 'NONE', #301, .T. ) ;
#48 = ORIENTED_EDGE ( 'NONE', *, *, #139, .F. ) ;
#49 = APPROVAL_PERSON_ORGANIZATION ( #61, #124, #43 ) ;
#50 = ORIENTED_EDGE ( 'NONE', *, *, #245, .F. ) ;
#51 = CARTESIAN_POINT ( 'NONE',  ( 8.728703347107833388E-16, 0.9584999999999991305, 0.2500000000000000000 ) ) ;
#52 = FACE_OUTER_BOUND ( 'NONE', #178, .T. ) ;
#53 = VERTEX_POINT ( 'NONE', #188 ) ;
#54 = CARTESIAN_POINT ( 'NONE',  ( 7.721941054645735674E-14, -2.708492321173282227E-15, 22.11651819168628563 ) ) ;
#55 = CONICAL_SURFACE ( 'NONE', #263, 0.9584999999999991305, 0.5235987755982930425 ) ;
#56 = ADVANCED_FACE ( 'NONE', ( #109, #70 ), #71, .F. ) ;
#57 = CARTESIAN_POINT ( 'NONE',  ( 2.793185071074506684E-14, 0.9584999999999991305, 8.000000000000000000 ) ) ;
#58 = DIRECTION ( 'NONE',  ( -3.491481338843133355E-15, 1.224646799147353207E-16, -1.000000000000000000 ) ) ;
#59 = CARTESIAN_POINT ( 'NONE',  ( 1.745740669421566678E-13, 1.199999999999995515, 50.00000000000000000 ) ) ;
#60 = AXIS2_PLACEMENT_3D ( 'NONE', #78, #171, #121 ) ;
#61 = PERSON_AND_ORGANIZATION ( #82, #116 ) ;
#62 = EDGE_LOOP ( 'NONE', ( #295 ) ) ;
#63 = PERSON_AND_ORGANIZATION_ROLE ( 'classification_officer' ) ;
#64 = ADVANCED_FACE ( 'NONE', ( #98, #252 ), #162, .T. ) ;
#65 = ORIENTED_EDGE ( 'NONE', *, *, #137, .T. ) ;
#66 = APPROVAL_PERSON_ORGANIZATION ( #118, #218, #238 ) ;
#67 = DIRECTION ( 'NONE',  ( 4.275831445896958607E-31, 1.000000000000000000, 1.224646799147353207E-16 ) ) ;
#68 = CARTESIAN_POINT ( 'NONE',  ( 6.284666409917640040E-14, -2.168404344971008868E-15, 18.00000000000000000 ) ) ;
#69 = DIRECTION ( 'NONE',  ( 0.0000000000000000000, 1.000000000000000000, 0.0000000000000000000 ) ) ;
#70 = FACE_OUTER_BOUND ( 'NONE', #44, .T. ) ;
#71 = TOROIDAL_SURFACE ( 'NONE', #280, 2.805000000000000160, 2.000000000000000444 ) ;
#72 = VERTEX_POINT ( 'NONE', #172 ) ;
#73 = CARTESIAN_POINT ( 'NONE',  ( 0.0000000000000000000, 0.0000000000000000000, 0.0000000000000000000 ) ) ;
#74 = DIRECTION ( 'NONE',  ( -3.491481338843133355E-15, 1.224646799147353207E-16, -1.000000000000000000 ) ) ;
#75 = EDGE_CURVE ( 'NONE', #257, #257, #135, .T. ) ;
#76 = CARTESIAN_POINT ( 'NONE',  ( 8.728703347107829444E-16, -3.061616997868381785E-17, 0.2499999999999998890 ) ) ;
#77 = PERSON_AND_ORGANIZATION ( #82, #116 ) ;
#78 = CARTESIAN_POINT ( 'NONE',  ( 2.793185071074506684E-14, -9.797174393178825657E-16, 8.000000000000000000 ) ) ;
#79 = AXIS2_PLACEMENT_3D ( 'NONE', #22, #277, #26 ) ;
#80 = LOCAL_TIME ( 9, 32, 54.00000000000000000, #133 ) ;
#81 = PLANE ( 'NONE',  #242 ) ;
#82 = PERSON ( 'UNSPECIFIED', 'UNSPECIFIED', 'UNSPECIFIED', ('UNSPECIFIED'), ('UNSPECIFIED'), ('UNSPECIFIED') ) ;
#83 = CALENDAR_DATE ( 2021, 30, 11 ) ;
#84 = EDGE_CURVE ( 'NONE', #300, #300, #97, .T. ) ;
#85 = EDGE_LOOP ( 'NONE', ( #21 ) ) ;
#86 = ORIENTED_EDGE ( 'NONE', *, *, #84, .F. ) ;
#87 = CIRCLE ( 'NONE', #251, 1.500000000000001554 ) ;
#88 = SHAPE_DEFINITION_REPRESENTATION ( #18, #227 ) ;
#89 = EDGE_LOOP ( 'NONE', ( #86 ) ) ;
#90 = PERSON_AND_ORGANIZATION ( #82, #116 ) ;
#91 = FACE_OUTER_BOUND ( 'NONE', #254, .T. ) ;
#92 = AXIS2_PLACEMENT_3D ( 'NONE', #187, #140, #67 ) ;
#93 = ORIENTED_EDGE ( 'NONE', *, *, #137, .F. ) ;
#94 = CYLINDRICAL_SURFACE ( 'NONE', #92, 0.8049999999999997158 ) ;
#95 = DIRECTION ( 'NONE',  ( -3.491481338843133355E-15, 1.224646799147353207E-16, -1.000000000000000000 ) ) ;
#96 = DIRECTION ( 'NONE',  ( -3.491481338843133355E-15, 1.224646799147353207E-16, -1.000000000000000000 ) ) ;
#97 = CIRCLE ( 'NONE', #287, 0.8049999999999998268 ) ;
#98 = FACE_OUTER_BOUND ( 'NONE', #130, .T. ) ;
#99 = CARTESIAN_POINT ( 'NONE',  ( -3.481221331817721134E-31, 1.221048073121492802E-32, -9.970614171952550111E-17 ) ) ;
#100 = CARTESIAN_POINT ( 'NONE',  ( 2.793185071074506684E-14, 7.187598758406938819E-33, 8.000000000000000000 ) ) ;
#101 = DIRECTION ( 'NONE',  ( 3.491481338843133355E-15, -1.224646799147353207E-16, 1.000000000000000000 ) ) ;
#102 = DIRECTION ( 'NONE',  ( 0.0000000000000000000, 1.000000000000000000, 0.0000000000000000000 ) ) ;
#103 = CC_DESIGN_APPROVAL ( #253, ( #23 ) ) ;
#104 = SECURITY_CLASSIFICATION_LEVEL ( 'unclassified' ) ;
#105 = LOCAL_TIME ( 9, 32, 54.00000000000000000, #289 ) ;
#106 = APPROVAL_PERSON_ORGANIZATION ( #36, #253, #125 ) ;
#107 = APPROVAL_DATE_TIME ( #179, #124 ) ;
#108 = DIRECTION ( 'NONE',  ( -3.491481338843133355E-15, 1.224646799147353207E-16, -1.000000000000000000 ) ) ;
#109 = FACE_OUTER_BOUND ( 'NONE', #132, .T. ) ;
#110 = AXIS2_PLACEMENT_3D ( 'NONE', #299, #96, #279 ) ;
#111 = CARTESIAN_POINT ( 'NONE',  ( 6.284666409917638777E-14, -2.204364238465235033E-15, 17.99999999999999645 ) ) ;
#112 = DIRECTION ( 'NONE',  ( 4.275831445896958607E-31, 1.000000000000000000, 1.224646799147353454E-16 ) ) ;
#113 =( NAMED_UNIT ( * ) SI_UNIT ( $, .STERADIAN. ) SOLID_ANGLE_UNIT ( ) );
#114 = EDGE_LOOP ( 'NONE', ( #65 ) ) ;
#115 = VERTEX_POINT ( 'NONE', #262 ) ;
#116 = ORGANIZATION ( 'UNSPECIFIED', 'UNSPECIFIED', '' ) ;
#117 = FACE_OUTER_BOUND ( 'NONE', #15, .T. ) ;
#118 = PERSON_AND_ORGANIZATION ( #82, #116 ) ;
#119 = FACE_OUTER_BOUND ( 'NONE', #224, .T. ) ;
#120 = COORDINATED_UNIVERSAL_TIME_OFFSET ( 1, 0, .AHEAD. ) ;
#121 = DIRECTION ( 'NONE',  ( 0.0000000000000000000, 1.000000000000000000, 0.0000000000000000000 ) ) ;
#122 = CARTESIAN_POINT ( 'NONE',  ( 2.793185071074506684E-14, -9.797174393178825657E-16, 8.000000000000000000 ) ) ;
#123 = CIRCLE ( 'NONE', #29, 0.8353844939755807886 ) ;
#124 = APPROVAL ( #249, 'UNSPECIFIED' ) ;
#125 = APPROVAL_ROLE ( '' ) ;
#126 = ADVANCED_FACE ( 'NONE', ( #259 ), #136, .F. ) ;
#127 = CALENDAR_DATE ( 2021, 30, 11 ) ;
#128 = LOCAL_TIME ( 9, 32, 54.00000000000000000, #120 ) ;
#129 = DESIGN_CONTEXT ( 'detailed design', #303, 'design' ) ;
#130 = EDGE_LOOP ( 'NONE', ( #93 ) ) ;
#131 = CC_DESIGN_PERSON_AND_ORGANIZATION_ASSIGNMENT ( #14, #175, ( #23 ) ) ;
#132 = EDGE_LOOP ( 'NONE', ( #205 ) ) ;
#133 = COORDINATED_UNIVERSAL_TIME_OFFSET ( 1, 0, .AHEAD. ) ;
#134 = EDGE_LOOP ( 'NONE', ( #196 ) ) ;
#135 = CIRCLE ( 'NONE', #12, 1.200000000000001732 ) ;
#136 = PLANE ( 'NONE',  #182 ) ;
#137 = EDGE_CURVE ( 'NONE', #210, #210, #2, .T. ) ;
#138 = CARTESIAN_POINT ( 'NONE',  ( 2.793185071074506684E-14, 7.187598758406938819E-33, 8.000000000000000000 ) ) ;
#139 = EDGE_CURVE ( 'NONE', #53, #53, #142, .T. ) ;
#140 = DIRECTION ( 'NONE',  ( -3.491481338843133355E-15, 1.224646799147353207E-16, -1.000000000000000000 ) ) ;
#141 = AXIS2_PLACEMENT_3D ( 'NONE', #273, #108, #112 ) ;
#142 = CIRCLE ( 'NONE', #16, 1.499999999999996669 ) ;
#143 = DIRECTION ( 'NONE',  ( -3.491481338843133355E-15, 1.224646799147353207E-16, -1.000000000000000000 ) ) ;
#144 = DIRECTION ( 'NONE',  ( -3.491481338843133355E-15, 1.224646799147353207E-16, -1.000000000000000000 ) ) ;
#145 = CARTESIAN_POINT ( 'NONE',  ( 2.886013015238223984E-14, -1.012277099146737164E-15, 8.265869798961823278 ) ) ;
#146 = CARTESIAN_POINT ( 'NONE',  ( 2.886013015238223984E-14, 0.8049999999999988276, 8.265869798961823278 ) ) ;
#147 = PLANE ( 'NONE',  #159 ) ;
#148 = CONICAL_SURFACE ( 'NONE', #110, 1.200000000000001732, 0.7853981633974453924 ) ;
#149 = DIRECTION ( 'NONE',  ( 0.0000000000000000000, 1.000000000000000000, 0.0000000000000000000 ) ) ;
#150 = CARTESIAN_POINT ( 'NONE',  ( 0.0000000000000000000, 0.0000000000000000000, 0.0000000000000000000 ) ) ;
#151 = FACE_BOUND ( 'NONE', #209, .T. ) ;
#152 = ADVANCED_FACE ( 'NONE', ( #151, #117 ), #221, .T. ) ;
#153 = DATE_TIME_ROLE ( 'creation_date' ) ;
#154 = CALENDAR_DATE ( 2021, 30, 11 ) ;
#155 = CIRCLE ( 'NONE', #60, 0.9585000000000001297 ) ;
#156 = COORDINATED_UNIVERSAL_TIME_OFFSET ( 1, 0, .AHEAD. ) ;
#157 = ORIENTED_EDGE ( 'NONE', *, *, #204, .T. ) ;
#158 = DATE_AND_TIME ( #199, #39 ) ;
#159 = AXIS2_PLACEMENT_3D ( 'NONE', #213, #144, #278 ) ;
#160 = FACE_OUTER_BOUND ( 'NONE', #230, .T. ) ;
#161 = FACE_BOUND ( 'NONE', #41, .T. ) ;
#162 = CYLINDRICAL_SURFACE ( 'NONE', #236, 0.9584999999999996856 ) ;
#163 = MANIFOLD_SOLID_BREP ( 'Corps-Déplacer/Copier1[2]', #11 ) ;
#164 = CARTESIAN_POINT ( 'NONE',  ( 1.735266225405037467E-13, -6.086494591762345225E-15, 49.70000000000000284 ) ) ;
#165 = CIRCLE ( 'NONE', #225, 0.8141624327025946961 ) ;
#166 = DIRECTION ( 'NONE',  ( 4.275831445896958607E-31, 1.000000000000000000, 1.224646799147353207E-16 ) ) ;
#167 = DIRECTION ( 'NONE',  ( 4.275831445896957731E-31, 1.000000000000000000, 1.224646799147353207E-16 ) ) ;
#168 = CARTESIAN_POINT ( 'NONE',  ( 6.405924284287273902E-14, 0.8353844939755785681, 18.34729635533384240 ) ) ;
#169 = DIRECTION ( 'NONE',  ( -4.275831445896958607E-31, -1.000000000000000000, -1.224646799147353207E-16 ) ) ;
#170 = APPROVAL_STATUS ( 'not_yet_approved' ) ;
#171 = DIRECTION ( 'NONE',  ( -3.491481338843133355E-15, 1.224646799147353207E-16, -1.000000000000000000 ) ) ;
#172 = CARTESIAN_POINT ( 'NONE',  ( 6.284666409917638777E-14, 0.8049999999999976064, 17.99999999999999645 ) ) ;
#173 = ORIENTED_EDGE ( 'NONE', *, *, #84, .T. ) ;
#174 = ADVANCED_FACE ( 'NONE', ( #217, #191 ), #55, .T. ) ;
#175 = PERSON_AND_ORGANIZATION_ROLE ( 'creator' ) ;
#176 = ORIENTED_EDGE ( 'NONE', *, *, #222, .T. ) ;
#177 = AXIS2_PLACEMENT_3D ( 'NONE', #28, #237, #286 ) ;
#178 = EDGE_LOOP ( 'NONE', ( #241 ) ) ;
#179 = DATE_AND_TIME ( #127, #80 ) ;
#180 = FACE_OUTER_BOUND ( 'NONE', #250, .T. ) ;
#181 = CIRCLE ( 'NONE', #256, 0.8049999999999997158 ) ;
#182 = AXIS2_PLACEMENT_3D ( 'NONE', #138, #298, #169 ) ;
#183 = ORIENTED_EDGE ( 'NONE', *, *, #276, .F. ) ;
#184 = DIRECTION ( 'NONE',  ( -3.491481338843133355E-15, 1.224646799147353207E-16, -1.000000000000000000 ) ) ;
#185 = CC_DESIGN_PERSON_AND_ORGANIZATION_ASSIGNMENT ( #90, #248, ( #240 ) ) ;
#186 = VERTEX_POINT ( 'NONE', #168 ) ;
#187 = CARTESIAN_POINT ( 'NONE',  ( 0.0000000000000000000, 0.0000000000000000000, 0.0000000000000000000 ) ) ;
#188 = CARTESIAN_POINT ( 'NONE',  ( 7.721941054645735674E-14, 1.499999999999994005, 22.11651819168628563 ) ) ;
#189 = CC_DESIGN_APPROVAL ( #124, ( #207 ) ) ;
#190 = DIRECTION ( 'NONE',  ( -3.491481338843133355E-15, 1.224646799147353207E-16, -1.000000000000000000 ) ) ;
#191 = FACE_OUTER_BOUND ( 'NONE', #114, .T. ) ;
#192 = VERTEX_POINT ( 'NONE', #32 ) ;
#193 = ADVANCED_FACE ( 'NONE', ( #119 ), #215, .F. ) ;
#194 = DIRECTION ( 'NONE',  ( 4.018633165127256138E-31, 1.000000000000000000, 1.131144676562864229E-16 ) ) ;
#195 = CC_DESIGN_SECURITY_CLASSIFICATION ( #207, ( #23 ) ) ;
#196 = ORIENTED_EDGE ( 'NONE', *, *, #276, .T. ) ;
#197 = CC_DESIGN_PERSON_AND_ORGANIZATION_ASSIGNMENT ( #290, #293, ( #23 ) ) ;
#198 = CLOSED_SHELL ( 'NONE', ( #126, #20, #9, #56, #152, #33, #46, #269 ) ) ;
#199 = CALENDAR_DATE ( 2021, 30, 11 ) ;
#200 = PRODUCT_RELATED_PRODUCT_CATEGORY ( 'detail', '', ( #296 ) ) ;
#201 =( GEOMETRIC_REPRESENTATION_CONTEXT ( 3 ) GLOBAL_UNCERTAINTY_ASSIGNED_CONTEXT ( ( #246 ) ) GLOBAL_UNIT_ASSIGNED_CONTEXT ( ( #4, #235, #113 ) ) REPRESENTATION_CONTEXT ( 'NONE', 'WORKASPACE' ) );
#202 = DATE_AND_TIME ( #219, #35 ) ;
#203 = EDGE_LOOP ( 'NONE', ( #266 ) ) ;
#204 = EDGE_CURVE ( 'NONE', #260, #260, #155, .T. ) ;
#205 = ORIENTED_EDGE ( 'NONE', *, *, #38, .F. ) ;
#206 = DIRECTION ( 'NONE',  ( 0.0000000000000000000, 1.000000000000000000, 0.0000000000000000000 ) ) ;
#207 = SECURITY_CLASSIFICATION ( '', '', #104 ) ;
#208 = FACE_OUTER_BOUND ( 'NONE', #45, .T. ) ;
#209 = EDGE_LOOP ( 'NONE', ( #50 ) ) ;
#210 = VERTEX_POINT ( 'NONE', #51 ) ;
#211 = CARTESIAN_POINT ( 'NONE',  ( 1.745740669421566678E-13, -6.123233995736766085E-15, 50.00000000000000000 ) ) ;
#212 = AXIS2_PLACEMENT_3D ( 'NONE', #150, #233, #214 ) ;
#213 = CARTESIAN_POINT ( 'NONE',  ( 1.745740669421566678E-13, 8.998558695971067645E-33, 50.00000000000000000 ) ) ;
#214 = DIRECTION ( 'NONE',  ( 1.000000000000000000, 0.0000000000000000000, 0.0000000000000000000 ) ) ;
#215 = PLANE ( 'NONE',  #268 ) ;
#216 = VERTEX_POINT ( 'NONE', #281 ) ;
#217 = FACE_BOUND ( 'NONE', #203, .T. ) ;
#218 = APPROVAL ( #170, 'UNSPECIFIED' ) ;
#219 = CALENDAR_DATE ( 2021, 30, 11 ) ;
#220 = CC_DESIGN_PERSON_AND_ORGANIZATION_ASSIGNMENT ( #77, #27, ( #296 ) ) ;
#221 = CONICAL_SURFACE ( 'NONE', #177, 1.499999999999996669, 0.1745329251994260644 ) ;
#222 = EDGE_CURVE ( 'NONE', #115, #115, #165, .T. ) ;
#223 = APPROVAL_STATUS ( 'not_yet_approved' ) ;
#224 = EDGE_LOOP ( 'NONE', ( #176 ) ) ;
#225 = AXIS2_PLACEMENT_3D ( 'NONE', #99, #34, #264 ) ;
#226 = ORIENTED_EDGE ( 'NONE', *, *, #139, .T. ) ;
#227 = ADVANCED_BREP_SHAPE_REPRESENTATION ( '982028', ( #267, #163, #212 ), #201 ) ;
#228 = ORIENTED_EDGE ( 'NONE', *, *, #75, .T. ) ;
#229 = DIRECTION ( 'NONE',  ( 0.0000000000000000000, 1.000000000000000000, 0.0000000000000000000 ) ) ;
#230 = EDGE_LOOP ( 'NONE', ( #48 ) ) ;
#231 = DIRECTION ( 'NONE',  ( 3.491481338843133355E-15, -1.224646799147353207E-16, 1.000000000000000000 ) ) ;
#232 = DIRECTION ( 'NONE',  ( -3.491481338843133355E-15, 1.224646799147353207E-16, -1.000000000000000000 ) ) ;
#233 = DIRECTION ( 'NONE',  ( 0.0000000000000000000, 0.0000000000000000000, 1.000000000000000000 ) ) ;
#234 = DIRECTION ( 'NONE',  ( -3.491481338843133355E-15, 1.224646799147353207E-16, -1.000000000000000000 ) ) ;
#235 =( NAMED_UNIT ( * ) PLANE_ANGLE_UNIT ( ) SI_UNIT ( $, .RADIAN. ) );
#236 = AXIS2_PLACEMENT_3D ( 'NONE', #73, #190, #167 ) ;
#237 = DIRECTION ( 'NONE',  ( 3.491481338843133355E-15, -1.224646799147353207E-16, 1.000000000000000000 ) ) ;
#238 = APPROVAL_ROLE ( '' ) ;
#239 = DIRECTION ( 'NONE',  ( -4.275831445896958607E-31, -1.000000000000000000, -1.224646799147353207E-16 ) ) ;
#240 = PRODUCT_DEFINITION ( 'UNKNOWN', '', #23, #129 ) ;
#241 = ORIENTED_EDGE ( 'NONE', *, *, #75, .F. ) ;
#242 = AXIS2_PLACEMENT_3D ( 'NONE', #100, #231, #283 ) ;
#243 = APPROVAL_DATE_TIME ( #244, #218 ) ;
#244 = DATE_AND_TIME ( #154, #128 ) ;
#245 = EDGE_CURVE ( 'NONE', #186, #186, #123, .T. ) ;
#246 = UNCERTAINTY_MEASURE_WITH_UNIT (LENGTH_MEASURE( 1.000000000000000082E-05 ), #4, 'distance_accuracy_value', 'NONE');
#247 = CIRCLE ( 'NONE', #274, 0.9585000000000001297 ) ;
#248 = PERSON_AND_ORGANIZATION_ROLE ( 'creator' ) ;
#249 = APPROVAL_STATUS ( 'not_yet_approved' ) ;
#250 = EDGE_LOOP ( 'NONE', ( #255 ) ) ;
#251 = AXIS2_PLACEMENT_3D ( 'NONE', #164, #74, #265 ) ;
#252 = FACE_OUTER_BOUND ( 'NONE', #294, .T. ) ;
#253 = APPROVAL ( #223, 'UNSPECIFIED' ) ;
#254 = EDGE_LOOP ( 'NONE', ( #183 ) ) ;
#255 = ORIENTED_EDGE ( 'NONE', *, *, #297, .T. ) ;
#256 = AXIS2_PLACEMENT_3D ( 'NONE', #111, #184, #229 ) ;
#257 = VERTEX_POINT ( 'NONE', #59 ) ;
#258 = DIRECTION ( 'NONE',  ( 0.0000000000000000000, 1.000000000000000000, 0.0000000000000000000 ) ) ;
#259 = FACE_OUTER_BOUND ( 'NONE', #134, .T. ) ;
#260 = VERTEX_POINT ( 'NONE', #57 ) ;
#261 = DIRECTION ( 'NONE',  ( -3.491481338843133355E-15, 1.224646799147353207E-16, -1.000000000000000000 ) ) ;
#262 = CARTESIAN_POINT ( 'NONE',  ( -4.276423536147513034E-47, 0.8141624327025946961, 0.0000000000000000000 ) ) ;
#263 = AXIS2_PLACEMENT_3D ( 'NONE', #284, #8, #31 ) ;
#264 = DIRECTION ( 'NONE',  ( 4.275831445896958607E-31, 1.000000000000000000, 1.224646799147353207E-16 ) ) ;
#265 = DIRECTION ( 'NONE',  ( 0.0000000000000000000, 1.000000000000000000, 0.0000000000000000000 ) ) ;
#266 = ORIENTED_EDGE ( 'NONE', *, *, #222, .F. ) ;
#267 = MANIFOLD_SOLID_BREP ( 'Corps-Déplacer/Copier1[1]', #198 ) ;
#268 = AXIS2_PLACEMENT_3D ( 'NONE', #6, #101, #239 ) ;
#269 = ADVANCED_FACE ( 'NONE', ( #52 ), #147, .F. ) ;
#270 = DATE_AND_TIME ( #83, #105 ) ;
#271 = ADVANCED_FACE ( 'NONE', ( #7 ), #81, .T. ) ;
#272 = PERSON_AND_ORGANIZATION ( #82, #116 ) ;
#273 = CARTESIAN_POINT ( 'NONE',  ( 0.0000000000000000000, 0.0000000000000000000, 0.0000000000000000000 ) ) ;
#274 = AXIS2_PLACEMENT_3D ( 'NONE', #122, #95, #69 ) ;
#275 = ORIENTED_EDGE ( 'NONE', *, *, #245, .T. ) ;
#276 = EDGE_CURVE ( 'NONE', #216, #216, #247, .T. ) ;
#277 = DIRECTION ( 'NONE',  ( -3.491481338843133355E-15, 1.224646799147353207E-16, -1.000000000000000000 ) ) ;
#278 = DIRECTION ( 'NONE',  ( 4.275831445896958607E-31, 1.000000000000000000, 1.224646799147353207E-16 ) ) ;
#279 = DIRECTION ( 'NONE',  ( 0.0000000000000000000, 1.000000000000000000, 0.0000000000000000000 ) ) ;
#280 = AXIS2_PLACEMENT_3D ( 'NONE', #68, #232, #166 ) ;
#281 = CARTESIAN_POINT ( 'NONE',  ( 2.793185071074506684E-14, 0.9584999999999991305, 8.000000000000000000 ) ) ;
#282 = FACE_OUTER_BOUND ( 'NONE', #89, .T. ) ;
#283 = DIRECTION ( 'NONE',  ( -4.275831445896958607E-31, -1.000000000000000000, -1.224646799147353207E-16 ) ) ;
#284 = CARTESIAN_POINT ( 'NONE',  ( 8.728703347107829444E-16, -3.061616997868381785E-17, 0.2499999999999998890 ) ) ;
#285 = MECHANICAL_CONTEXT ( 'NONE', #24, 'mechanical' ) ;
#286 = DIRECTION ( 'NONE',  ( 0.0000000000000000000, -1.000000000000000000, 0.0000000000000000000 ) ) ;
#287 = AXIS2_PLACEMENT_3D ( 'NONE', #145, #1, #206 ) ;
#288 = AXIS2_PLACEMENT_3D ( 'NONE', #76, #261, #194 ) ;
#289 = COORDINATED_UNIVERSAL_TIME_OFFSET ( 1, 0, .AHEAD. ) ;
#290 = PERSON_AND_ORGANIZATION ( #82, #116 ) ;
#291 = DATE_TIME_ROLE ( 'classification_date' ) ;
#292 = CC_DESIGN_APPROVAL ( #218, ( #240 ) ) ;
#293 = PERSON_AND_ORGANIZATION_ROLE ( 'design_supplier' ) ;
#294 = EDGE_LOOP ( 'NONE', ( #157 ) ) ;
#295 = ORIENTED_EDGE ( 'NONE', *, *, #38, .T. ) ;
#296 = PRODUCT ( '982028', '982028', '', ( #285 ) ) ;
#297 = EDGE_CURVE ( 'NONE', #192, #192, #87, .T. ) ;
#298 = DIRECTION ( 'NONE',  ( 3.491481338843133355E-15, -1.224646799147353207E-16, 1.000000000000000000 ) ) ;
#299 = CARTESIAN_POINT ( 'NONE',  ( 1.745740669421566678E-13, -6.123233995736766085E-15, 50.00000000000000000 ) ) ;
#300 = VERTEX_POINT ( 'NONE', #146 ) ;
#301 = EDGE_LOOP ( 'NONE', ( #228 ) ) ;
#302 = APPLICATION_PROTOCOL_DEFINITION ( 'international standard', 'config_control_design', 1994, #24 ) ;
#303 = APPLICATION_CONTEXT ( 'configuration controlled 3d designs of mechanical parts and assemblies' ) ;
ENDSEC;
END-ISO-10303-21;
