ISO-10303-21;
HEADER;
FILE_DESCRIPTION (( 'STEP AP203' ),
    '1' );
FILE_NAME ('98.step',
    '2021-10-06T11:26:43',
    ( '' ),
    ( '' ),
    'SwSTEP 2.0',
    'SolidWorks 2019',
    '' );
FILE_SCHEMA (( 'CONFIG_CONTROL_DESIGN' ));
ENDSEC;

DATA;
#1 =( GEOMETRIC_REPRESENTATION_CONTEXT ( 3 ) GLOBAL_UNCERTAINTY_ASSIGNED_CONTEXT ( ( #80 ) ) GLOBAL_UNIT_ASSIGNED_CONTEXT ( ( #60, #11, #42 ) ) REPRESENTATION_CONTEXT ( 'NONE', 'WORKASPACE' ) );
#2 = ORIENTED_EDGE ( 'NONE', *, *, #83, .T. ) ;
#3 = VERTEX_POINT ( 'NONE', #128 ) ;
#4 = DIRECTION ( 'NONE',  ( -3.491481338843133355E-15, 1.224646799147353207E-16, -1.000000000000000000 ) ) ;
#5 = FACE_OUTER_BOUND ( 'NONE', #159, .T. ) ;
#6 = DIRECTION ( 'NONE',  ( 3.491481338843133355E-15, -1.224646799147353207E-16, 1.000000000000000000 ) ) ;
#7 = SECURITY_CLASSIFICATION ( '', '', #171 ) ;
#8 = CARTESIAN_POINT ( 'NONE',  ( 1.326762908760390423E-13, 2.437109646825448479E-33, 38.00000000000000000 ) ) ;
#9 = APPROVAL_DATE_TIME ( #150, #167 ) ;
#10 = PRODUCT_DEFINITION_SHAPE ( 'NONE', 'NONE',  #144 ) ;
#11 =( NAMED_UNIT ( * ) PLANE_ANGLE_UNIT ( ) SI_UNIT ( $, .RADIAN. ) );
#12 = DIRECTION ( 'NONE',  ( 1.000000000000000000, 0.0000000000000000000, 0.0000000000000000000 ) ) ;
#13 = CONICAL_SURFACE ( 'NONE', #140, 0.4249999999999953260, 1.134464013796309123 ) ;
#14 = ADVANCED_FACE ( 'NONE', ( #30, #73 ), #145, .T. ) ;
#15 = DIRECTION ( 'NONE',  ( -3.491481338843133355E-15, 1.224646799147353207E-16, -1.000000000000000000 ) ) ;
#16 = CIRCLE ( 'NONE', #131, 0.4249999999999953260 ) ;
#17 = CC_DESIGN_SECURITY_CLASSIFICATION ( #7, ( #87 ) ) ;
#18 = APPROVAL ( #26, 'UNSPECIFIED' ) ;
#19 = DIRECTION ( 'NONE',  ( 3.491481338843133355E-15, -1.224646799147353207E-16, 1.000000000000000000 ) ) ;
#20 = DIRECTION ( 'NONE',  ( 3.491481338843133355E-15, -1.224646799147353207E-16, 1.000000000000000000 ) ) ;
#21 = FACE_OUTER_BOUND ( 'NONE', #178, .T. ) ;
#22 = COORDINATED_UNIVERSAL_TIME_OFFSET ( 1, 0, .AHEAD. ) ;
#23 = COORDINATED_UNIVERSAL_TIME_OFFSET ( 1, 0, .AHEAD. ) ;
#24 = AXIS2_PLACEMENT_3D ( 'NONE', #69, #195, #36 ) ;
#25 = CC_DESIGN_APPROVAL ( #167, ( #7 ) ) ;
#26 = APPROVAL_STATUS ( 'not_yet_approved' ) ;
#27 = APPLICATION_CONTEXT ( 'configuration controlled 3d designs of mechanical parts and assemblies' ) ;
#28 = DATE_AND_TIME ( #119, #152 ) ;
#29 = ADVANCED_FACE ( 'NONE', ( #149 ), #196, .F. ) ;
#30 = FACE_OUTER_BOUND ( 'NONE', #99, .T. ) ;
#31 = CC_DESIGN_PERSON_AND_ORGANIZATION_ASSIGNMENT ( #187, #121, ( #7 ) ) ;
#32 = LOCAL_TIME ( 13, 26, 43.00000000000000000, #109 ) ;
#33 = CARTESIAN_POINT ( 'NONE',  ( 4.538925740496073362E-14, 3.186989538156400205E-33, 13.00000000000000000 ) ) ;
#34 = DIRECTION ( 'NONE',  ( -3.491481338843133355E-15, 1.224646799147353207E-16, -1.000000000000000000 ) ) ;
#35 = CC_DESIGN_DATE_AND_TIME_ASSIGNMENT ( #65, #64, ( #144 ) ) ;
#36 = DIRECTION ( 'NONE',  ( 0.0000000000000000000, 1.000000000000000000, 0.0000000000000000000 ) ) ;
#37 = CIRCLE ( 'NONE', #68, 0.4249999999999999889 ) ;
#38 = DIRECTION ( 'NONE',  ( 0.0000000000000000000, 1.000000000000000000, 0.0000000000000000000 ) ) ;
#39 = CARTESIAN_POINT ( 'NONE',  ( 1.326762908760390423E-13, -4.653657836759941941E-15, 38.00000000000000000 ) ) ;
#40 = APPROVAL_ROLE ( '' ) ;
#41 = COORDINATED_UNIVERSAL_TIME_OFFSET ( 1, 0, .AHEAD. ) ;
#42 =( NAMED_UNIT ( * ) SI_UNIT ( $, .STERADIAN. ) SOLID_ANGLE_UNIT ( ) );
#43 = CC_DESIGN_PERSON_AND_ORGANIZATION_ASSIGNMENT ( #189, #185, ( #44 ) ) ;
#44 = PRODUCT ( '98', '98', '', ( #123 ) ) ;
#45 = APPROVAL_STATUS ( 'not_yet_approved' ) ;
#46 = AXIS2_PLACEMENT_3D ( 'NONE', #59, #20, #179 ) ;
#47 = APPROVAL_PERSON_ORGANIZATION ( #92, #18, #81 ) ;
#48 = APPROVAL_DATE_TIME ( #198, #18 ) ;
#49 = CONICAL_SURFACE ( 'NONE', #190, 0.3250000000000000111, 0.7853981633974339571 ) ;
#50 = APPROVAL ( #45, 'UNSPECIFIED' ) ;
#51 = EDGE_LOOP ( 'NONE', ( #124 ) ) ;
#52 = AXIS2_PLACEMENT_3D ( 'NONE', #55, #71, #166 ) ;
#53 = MANIFOLD_SOLID_BREP ( 'Corps-Déplacer/Copier1[1]', #181 ) ;
#54 = EDGE_CURVE ( 'NONE', #3, #3, #16, .T. ) ;
#55 = CARTESIAN_POINT ( 'NONE',  ( 4.538925740496073362E-14, -1.592040838891559095E-15, 13.00000000000000000 ) ) ;
#56 = PLANE ( 'NONE',  #158 ) ;
#57 = APPROVAL_PERSON_ORGANIZATION ( #62, #50, #202 ) ;
#58 = VERTEX_POINT ( 'NONE', #132 ) ;
#59 = CARTESIAN_POINT ( 'NONE',  ( 4.538925740496073362E-14, 3.186989538156400205E-33, 13.00000000000000000 ) ) ;
#60 =( LENGTH_UNIT ( ) NAMED_UNIT ( * ) SI_UNIT ( .MILLI., .METRE. ) );
#61 = ORGANIZATION ( 'UNSPECIFIED', 'UNSPECIFIED', '' ) ;
#62 = PERSON_AND_ORGANIZATION ( #148, #61 ) ;
#63 = ADVANCED_FACE ( 'NONE', ( #5, #183 ), #49, .T. ) ;
#64 = DATE_TIME_ROLE ( 'creation_date' ) ;
#65 = DATE_AND_TIME ( #151, #127 ) ;
#66 = ORIENTED_EDGE ( 'NONE', *, *, #192, .T. ) ;
#67 = CARTESIAN_POINT ( 'NONE',  ( 6.919444068083252334E-16, -2.427014269154028118E-17, 0.1981807547158748184 ) ) ;
#68 = AXIS2_PLACEMENT_3D ( 'NONE', #88, #15, #70 ) ;
#69 = CARTESIAN_POINT ( 'NONE',  ( 1.326762908760390423E-13, -4.653657836759941941E-15, 38.00000000000000000 ) ) ;
#70 = DIRECTION ( 'NONE',  ( 0.0000000000000000000, 1.000000000000000000, 0.0000000000000000000 ) ) ;
#71 = DIRECTION ( 'NONE',  ( -3.491481338843133355E-15, 1.224646799147353207E-16, -1.000000000000000000 ) ) ;
#72 = CC_DESIGN_APPROVAL ( #18, ( #144 ) ) ;
#73 = FACE_OUTER_BOUND ( 'NONE', #139, .T. ) ;
#74 = APPLICATION_PROTOCOL_DEFINITION ( 'international standard', 'config_control_design', 1994, #27 ) ;
#75 = CC_DESIGN_APPROVAL ( #50, ( #87 ) ) ;
#76 = DATE_AND_TIME ( #110, #32 ) ;
#77 = EDGE_LOOP ( 'NONE', ( #2 ) ) ;
#78 = ADVANCED_BREP_SHAPE_REPRESENTATION ( '98', ( #53, #191, #172 ), #1 ) ;
#79 = CALENDAR_DATE ( 2021, 6, 10 ) ;
#80 = UNCERTAINTY_MEASURE_WITH_UNIT (LENGTH_MEASURE( 1.000000000000000082E-05 ), #60, 'distance_accuracy_value', 'NONE');
#81 = APPROVAL_ROLE ( '' ) ;
#82 = CIRCLE ( 'NONE', #95, 0.4249999999999968803 ) ;
#83 = EDGE_CURVE ( 'NONE', #162, #162, #163, .T. ) ;
#84 = ORIENTED_EDGE ( 'NONE', *, *, #126, .T. ) ;
#85 = DIRECTION ( 'NONE',  ( -3.491481338843133355E-15, 1.224646799147353207E-16, -1.000000000000000000 ) ) ;
#86 = CARTESIAN_POINT ( 'NONE',  ( 6.919444068083252334E-16, -2.427014269154028118E-17, 0.1981807547158748184 ) ) ;
#87 = PRODUCT_DEFINITION_FORMATION_WITH_SPECIFIED_SOURCE ( 'ANY', '', #44, .NOT_KNOWN. ) ;
#88 = CARTESIAN_POINT ( 'NONE',  ( 1.323271427421547605E-13, -4.641411368768468584E-15, 37.89999999999999858 ) ) ;
#89 = VERTEX_POINT ( 'NONE', #193 ) ;
#90 = FACE_OUTER_BOUND ( 'NONE', #112, .T. ) ;
#91 = CALENDAR_DATE ( 2021, 6, 10 ) ;
#92 = PERSON_AND_ORGANIZATION ( #148, #61 ) ;
#93 = PERSON_AND_ORGANIZATION ( #148, #61 ) ;
#94 = ORIENTED_EDGE ( 'NONE', *, *, #203, .F. ) ;
#95 = AXIS2_PLACEMENT_3D ( 'NONE', #130, #85, #182 ) ;
#96 = LOCAL_TIME ( 13, 26, 43.00000000000000000, #22 ) ;
#97 = ORIENTED_EDGE ( 'NONE', *, *, #83, .F. ) ;
#98 = CIRCLE ( 'NONE', #52, 0.4249999999999968803 ) ;
#99 = EDGE_LOOP ( 'NONE', ( #94 ) ) ;
#100 = FACE_OUTER_BOUND ( 'NONE', #200, .T. ) ;
#101 = DIRECTION ( 'NONE',  ( 4.275831445896958607E-31, 1.000000000000000000, 1.224646799147353207E-16 ) ) ;
#102 = DIRECTION ( 'NONE',  ( -3.491481338843133355E-15, 1.224646799147353207E-16, -1.000000000000000000 ) ) ;
#103 = CARTESIAN_POINT ( 'NONE',  ( 1.326762908760390423E-13, 0.3249999999999953482, 38.00000000000000000 ) ) ;
#104 = PLANE ( 'NONE',  #46 ) ;
#105 = CARTESIAN_POINT ( 'NONE',  ( 0.0000000000000000000, 0.0000000000000000000, 0.0000000000000000000 ) ) ;
#106 = CC_DESIGN_PERSON_AND_ORGANIZATION_ASSIGNMENT ( #120, #168, ( #87 ) ) ;
#107 = PERSON_AND_ORGANIZATION_ROLE ( 'creator' ) ;
#108 = DESIGN_CONTEXT ( 'detailed design', #27, 'design' ) ;
#109 = COORDINATED_UNIVERSAL_TIME_OFFSET ( 1, 0, .AHEAD. ) ;
#110 = CALENDAR_DATE ( 2021, 6, 10 ) ;
#111 = ORIENTED_EDGE ( 'NONE', *, *, #54, .T. ) ;
#112 = EDGE_LOOP ( 'NONE', ( #153 ) ) ;
#113 = CYLINDRICAL_SURFACE ( 'NONE', #169, 0.4249999999999961031 ) ;
#114 = APPLICATION_CONTEXT ( 'configuration controlled 3d designs of mechanical parts and assemblies' ) ;
#115 = FACE_OUTER_BOUND ( 'NONE', #176, .T. ) ;
#116 = ADVANCED_FACE ( 'NONE', ( #129 ), #104, .T. ) ;
#117 = AXIS2_PLACEMENT_3D ( 'NONE', #8, #34, #118 ) ;
#118 = DIRECTION ( 'NONE',  ( 4.275831445896958607E-31, 1.000000000000000000, 1.224646799147353207E-16 ) ) ;
#119 = CALENDAR_DATE ( 2021, 6, 10 ) ;
#120 = PERSON_AND_ORGANIZATION ( #148, #61 ) ;
#121 = PERSON_AND_ORGANIZATION_ROLE ( 'classification_officer' ) ;
#122 = ADVANCED_FACE ( 'NONE', ( #90 ), #56, .F. ) ;
#123 = MECHANICAL_CONTEXT ( 'NONE', #114, 'mechanical' ) ;
#124 = ORIENTED_EDGE ( 'NONE', *, *, #126, .F. ) ;
#125 = ORIENTED_EDGE ( 'NONE', *, *, #54, .F. ) ;
#126 = EDGE_CURVE ( 'NONE', #89, #89, #98, .T. ) ;
#127 = LOCAL_TIME ( 13, 26, 43.00000000000000000, #138 ) ;
#128 = CARTESIAN_POINT ( 'NONE',  ( 6.919444068083254307E-16, 0.4249999999999953260, 0.1981807547158748739 ) ) ;
#129 = FACE_OUTER_BOUND ( 'NONE', #51, .T. ) ;
#130 = CARTESIAN_POINT ( 'NONE',  ( 4.538925740496073362E-14, -1.592040838891559095E-15, 13.00000000000000000 ) ) ;
#131 = AXIS2_PLACEMENT_3D ( 'NONE', #86, #180, #197 ) ;
#132 = CARTESIAN_POINT ( 'NONE',  ( 4.538925740496073362E-14, 0.4249999999999953260, 13.00000000000000000 ) ) ;
#133 = DIRECTION ( 'NONE',  ( 4.275831445896958607E-31, 1.000000000000000000, 1.224646799147353207E-16 ) ) ;
#134 = SHAPE_DEFINITION_REPRESENTATION ( #10, #78 ) ;
#135 = APPROVAL_DATE_TIME ( #76, #50 ) ;
#136 = PRODUCT_RELATED_PRODUCT_CATEGORY ( 'detail', '', ( #44 ) ) ;
#137 = EDGE_LOOP ( 'NONE', ( #97 ) ) ;
#138 = COORDINATED_UNIVERSAL_TIME_OFFSET ( 1, 0, .AHEAD. ) ;
#139 = EDGE_LOOP ( 'NONE', ( #66 ) ) ;
#140 = AXIS2_PLACEMENT_3D ( 'NONE', #67, #19, #160 ) ;
#141 = CC_DESIGN_DATE_AND_TIME_ASSIGNMENT ( #28, #184, ( #7 ) ) ;
#142 = ORIENTED_EDGE ( 'NONE', *, *, #192, .F. ) ;
#143 = DIRECTION ( 'NONE',  ( -4.275831445896958607E-31, -1.000000000000000000, -1.224646799147353207E-16 ) ) ;
#144 = PRODUCT_DEFINITION ( 'UNKNOWN', '', #87, #108 ) ;
#145 = CYLINDRICAL_SURFACE ( 'NONE', #174, 0.4249999999999983791 ) ;
#146 = CARTESIAN_POINT ( 'NONE',  ( 0.0000000000000000000, 0.0000000000000000000, 0.0000000000000000000 ) ) ;
#147 = CARTESIAN_POINT ( 'NONE',  ( 1.323271427421547605E-13, 0.4249999999999953260, 37.89999999999999858 ) ) ;
#148 = PERSON ( 'UNSPECIFIED', 'UNSPECIFIED', 'UNSPECIFIED', ('UNSPECIFIED'), ('UNSPECIFIED'), ('UNSPECIFIED') ) ;
#149 = FACE_OUTER_BOUND ( 'NONE', #137, .T. ) ;
#150 = DATE_AND_TIME ( #91, #96 ) ;
#151 = CALENDAR_DATE ( 2021, 6, 10 ) ;
#152 = LOCAL_TIME ( 13, 26, 43.00000000000000000, #23 ) ;
#153 = ORIENTED_EDGE ( 'NONE', *, *, #203, .T. ) ;
#154 = PERSON_AND_ORGANIZATION ( #148, #61 ) ;
#155 = CLOSED_SHELL ( 'NONE', ( #161, #157, #116 ) ) ;
#156 = APPROVAL_PERSON_ORGANIZATION ( #93, #167, #40 ) ;
#157 = ADVANCED_FACE ( 'NONE', ( #115, #100 ), #113, .T. ) ;
#158 = AXIS2_PLACEMENT_3D ( 'NONE', #33, #6, #143 ) ;
#159 = EDGE_LOOP ( 'NONE', ( #142 ) ) ;
#160 = DIRECTION ( 'NONE',  ( -4.531599869146487326E-31, -1.000000000000000000, -1.275531967630019297E-16 ) ) ;
#161 = ADVANCED_FACE ( 'NONE', ( #21 ), #13, .T. ) ;
#162 = VERTEX_POINT ( 'NONE', #103 ) ;
#163 = CIRCLE ( 'NONE', #24, 0.3250000000000000111 ) ;
#164 = DIRECTION ( 'NONE',  ( -3.491481338843133355E-15, 1.224646799147353207E-16, -1.000000000000000000 ) ) ;
#165 = VERTEX_POINT ( 'NONE', #147 ) ;
#166 = DIRECTION ( 'NONE',  ( 0.0000000000000000000, 1.000000000000000000, 0.0000000000000000000 ) ) ;
#167 = APPROVAL ( #188, 'UNSPECIFIED' ) ;
#168 = PERSON_AND_ORGANIZATION_ROLE ( 'design_supplier' ) ;
#169 = AXIS2_PLACEMENT_3D ( 'NONE', #146, #164, #101 ) ;
#170 = DIRECTION ( 'NONE',  ( 0.0000000000000000000, 0.0000000000000000000, 1.000000000000000000 ) ) ;
#171 = SECURITY_CLASSIFICATION_LEVEL ( 'unclassified' ) ;
#172 = AXIS2_PLACEMENT_3D ( 'NONE', #105, #170, #12 ) ;
#173 = PERSON_AND_ORGANIZATION_ROLE ( 'creator' ) ;
#174 = AXIS2_PLACEMENT_3D ( 'NONE', #194, #102, #133 ) ;
#175 = LOCAL_TIME ( 13, 26, 43.00000000000000000, #41 ) ;
#176 = EDGE_LOOP ( 'NONE', ( #125 ) ) ;
#177 = CC_DESIGN_PERSON_AND_ORGANIZATION_ASSIGNMENT ( #201, #107, ( #144 ) ) ;
#178 = EDGE_LOOP ( 'NONE', ( #111 ) ) ;
#179 = DIRECTION ( 'NONE',  ( -4.275831445896958607E-31, -1.000000000000000000, -1.224646799147353207E-16 ) ) ;
#180 = DIRECTION ( 'NONE',  ( -3.491481338843133355E-15, 1.224646799147353207E-16, -1.000000000000000000 ) ) ;
#181 = CLOSED_SHELL ( 'NONE', ( #122, #14, #63, #29 ) ) ;
#182 = DIRECTION ( 'NONE',  ( 0.0000000000000000000, 1.000000000000000000, 0.0000000000000000000 ) ) ;
#183 = FACE_BOUND ( 'NONE', #77, .T. ) ;
#184 = DATE_TIME_ROLE ( 'classification_date' ) ;
#185 = PERSON_AND_ORGANIZATION_ROLE ( 'design_owner' ) ;
#186 = CC_DESIGN_PERSON_AND_ORGANIZATION_ASSIGNMENT ( #154, #173, ( #87 ) ) ;
#187 = PERSON_AND_ORGANIZATION ( #148, #61 ) ;
#188 = APPROVAL_STATUS ( 'not_yet_approved' ) ;
#189 = PERSON_AND_ORGANIZATION ( #148, #61 ) ;
#190 = AXIS2_PLACEMENT_3D ( 'NONE', #39, #4, #38 ) ;
#191 = MANIFOLD_SOLID_BREP ( 'Corps-Déplacer/Copier1[2]', #155 ) ;
#192 = EDGE_CURVE ( 'NONE', #165, #165, #37, .T. ) ;
#193 = CARTESIAN_POINT ( 'NONE',  ( 4.538925740496073362E-14, 0.4249999999999953260, 13.00000000000000000 ) ) ;
#194 = CARTESIAN_POINT ( 'NONE',  ( 0.0000000000000000000, 0.0000000000000000000, 0.0000000000000000000 ) ) ;
#195 = DIRECTION ( 'NONE',  ( -3.491481338843133355E-15, 1.224646799147353207E-16, -1.000000000000000000 ) ) ;
#196 = PLANE ( 'NONE',  #117 ) ;
#197 = DIRECTION ( 'NONE',  ( 4.531599869146487326E-31, 1.000000000000000000, 1.275531967630019297E-16 ) ) ;
#198 = DATE_AND_TIME ( #79, #175 ) ;
#199 = APPLICATION_PROTOCOL_DEFINITION ( 'international standard', 'config_control_design', 1994, #114 ) ;
#200 = EDGE_LOOP ( 'NONE', ( #84 ) ) ;
#201 = PERSON_AND_ORGANIZATION ( #148, #61 ) ;
#202 = APPROVAL_ROLE ( '' ) ;
#203 = EDGE_CURVE ( 'NONE', #58, #58, #82, .T. ) ;
ENDSEC;
END-ISO-10303-21;
