ISO-10303-21;
HEADER;
FILE_DESCRIPTION (( 'STEP AP203' ),
    '1' );
FILE_NAME ('979179.step',
    '2024-07-12T09:23:24',
    ( '' ),
    ( '' ),
    'SwSTEP 2.0',
    'SolidWorks 2022',
    '' );
FILE_SCHEMA (( 'CONFIG_CONTROL_DESIGN' ));
ENDSEC;

DATA;
#1 = APPROVAL_STATUS ( 'not_yet_approved' ) ;
#2 = APPROVAL ( #1, 'UNSPECIFIED' ) ;
#3 = FACE_BOUND ( 'NONE', #57, .T. ) ;
#4 = ADVANCED_FACE ( 'NONE', ( #40, #3 ), #180, .T. ) ;
#5 = FACE_OUTER_BOUND ( 'NONE', #141, .T. ) ;
#6 = CARTESIAN_POINT ( 'NONE',  ( 1.448964755619900406E-13, -5.082284216461516537E-15, 41.50000000000000000 ) ) ;
#7 = CARTESIAN_POINT ( 'NONE',  ( 1.466422162314116009E-13, -5.143516556418884900E-15, 42.00000000000000000 ) ) ;
#8 = CC_DESIGN_APPROVAL ( #216, ( #242 ) ) ;
#9 = CARTESIAN_POINT ( 'NONE',  ( -2.137915722948479303E-31, 7.498798913309290776E-33, -6.123233995736767268E-17 ) ) ;
#10 = CARTESIAN_POINT ( 'NONE',  ( 6.982962677686266711E-15, 1.734723475976807094E-15, 2.000000000000000000 ) ) ;
#11 = SECURITY_CLASSIFICATION ( '', '', #77 ) ;
#12 = DIRECTION ( 'NONE',  ( 4.275831445896959482E-31, 1.000000000000000000, 1.224646799147353700E-16 ) ) ;
#13 = PERSON_AND_ORGANIZATION_ROLE ( 'classification_officer' ) ;
#14 = CALENDAR_DATE ( 2024, 12, 7 ) ;
#15 = CIRCLE ( 'NONE', #28, 2.999999999999998224 ) ;
#16 = CC_DESIGN_PERSON_AND_ORGANIZATION_ASSIGNMENT ( #53, #134, ( #36 ) ) ;
#17 = PERSON_AND_ORGANIZATION ( #67, #66 ) ;
#18 = EDGE_CURVE ( 'NONE', #201, #201, #234, .T. ) ;
#19 = EDGE_LOOP ( 'NONE', ( #192 ) ) ;
#20 = CARTESIAN_POINT ( 'NONE',  ( 1.466422162314116009E-13, -5.143516556418884900E-15, 42.00000000000000000 ) ) ;
#21 = CONICAL_SURFACE ( 'NONE', #78, 0.4000000000000000222, 0.7853981633974428389 ) ;
#22 = CC_DESIGN_PERSON_AND_ORGANIZATION_ASSIGNMENT ( #221, #173, ( #119 ) ) ;
#23 = ORIENTED_EDGE ( 'NONE', *, *, #90, .F. ) ;
#24 = CYLINDRICAL_SURFACE ( 'NONE', #54, 0.4000000000000000222 ) ;
#25 = AXIS2_PLACEMENT_3D ( 'NONE', #20, #99, #193 ) ;
#26 = VERTEX_POINT ( 'NONE', #105 ) ;
#27 = VERTEX_POINT ( 'NONE', #87 ) ;
#28 = AXIS2_PLACEMENT_3D ( 'NONE', #6, #162, #230 ) ;
#29 = FACE_OUTER_BOUND ( 'NONE', #83, .T. ) ;
#30 = CC_DESIGN_PERSON_AND_ORGANIZATION_ASSIGNMENT ( #17, #189, ( #119 ) ) ;
#31 =( NAMED_UNIT ( * ) SI_UNIT ( $, .STERADIAN. ) SOLID_ANGLE_UNIT ( ) );
#32 = LOCAL_TIME ( 11, 23, 24.00000000000000000, #156 ) ;
#33 = ADVANCED_FACE ( 'NONE', ( #5, #195 ), #161, .T. ) ;
#34 = APPLICATION_PROTOCOL_DEFINITION ( 'international standard', 'config_control_design', 1994, #236 ) ;
#35 = ORIENTED_EDGE ( 'NONE', *, *, #92, .F. ) ;
#36 = PRODUCT ( '979179', '979179', '', ( #220 ) ) ;
#37 = EDGE_LOOP ( 'NONE', ( #115 ) ) ;
#38 = PERSON_AND_ORGANIZATION ( #67, #66 ) ;
#39 = DIRECTION ( 'NONE',  ( -3.491481338843133355E-15, 1.224646799147353454E-16, -1.000000000000000000 ) ) ;
#40 = FACE_OUTER_BOUND ( 'NONE', #135, .T. ) ;
#41 = LOCAL_TIME ( 11, 23, 24.00000000000000000, #110 ) ;
#42 = ADVANCED_BREP_SHAPE_REPRESENTATION ( '979179', ( #124, #121, #238 ), #111 ) ;
#43 = ADVANCED_FACE ( 'NONE', ( #179 ), #227, .T. ) ;
#44 = CARTESIAN_POINT ( 'NONE',  ( -1.068957861474239652E-31, 3.749399456654645388E-33, -3.061616997868383634E-17 ) ) ;
#45 = CC_DESIGN_DATE_AND_TIME_ASSIGNMENT ( #153, #76, ( #242 ) ) ;
#46 = AXIS2_PLACEMENT_3D ( 'NONE', #215, #228, #176 ) ;
#47 = FACE_BOUND ( 'NONE', #191, .T. ) ;
#48 = PLANE ( 'NONE',  #82 ) ;
#49 = CIRCLE ( 'NONE', #187, 0.4000000000000000222 ) ;
#50 = DIRECTION ( 'NONE',  ( 3.491481338843133355E-15, -1.224646799147353454E-16, 1.000000000000000000 ) ) ;
#51 = COORDINATED_UNIVERSAL_TIME_OFFSET ( 1, 0, .AHEAD. ) ;
#52 = PRODUCT_RELATED_PRODUCT_CATEGORY ( 'detail', '', ( #36 ) ) ;
#53 = PERSON_AND_ORGANIZATION ( #67, #66 ) ;
#54 = AXIS2_PLACEMENT_3D ( 'NONE', #229, #103, #81 ) ;
#55 = ORIENTED_EDGE ( 'NONE', *, *, #75, .T. ) ;
#56 = APPROVAL_DATE_TIME ( #202, #2 ) ;
#57 = EDGE_LOOP ( 'NONE', ( #63 ) ) ;
#58 = DIRECTION ( 'NONE',  ( 0.000000000000000000, 0.000000000000000000, 1.000000000000000000 ) ) ;
#59 = FACE_OUTER_BOUND ( 'NONE', #178, .T. ) ;
#60 = FACE_OUTER_BOUND ( 'NONE', #203, .T. ) ;
#61 = ADVANCED_FACE ( 'NONE', ( #60, #118 ), #24, .T. ) ;
#62 = CARTESIAN_POINT ( 'NONE',  ( 9.426999614876461637E-15, -3.306546357697854719E-16, 2.700000000000000178 ) ) ;
#63 = ORIENTED_EDGE ( 'NONE', *, *, #92, .T. ) ;
#64 = VERTEX_POINT ( 'NONE', #199 ) ;
#65 = CARTESIAN_POINT ( 'NONE',  ( 6.982962677686265133E-15, -2.449293598294706414E-16, 1.999999999999999556 ) ) ;
#66 = ORGANIZATION ( 'UNSPECIFIED', 'UNSPECIFIED', '' ) ;
#67 = PERSON ( 'UNSPECIFIED', 'UNSPECIFIED', 'UNSPECIFIED', ('UNSPECIFIED'), ('UNSPECIFIED'), ('UNSPECIFIED') ) ;
#68 = CARTESIAN_POINT ( 'NONE',  ( 9.426999614876461637E-15, -3.306546357697854719E-16, 2.700000000000000178 ) ) ;
#69 = DIRECTION ( 'NONE',  ( 0.000000000000000000, 1.000000000000000000, 0.000000000000000000 ) ) ;
#70 = CC_DESIGN_DATE_AND_TIME_ASSIGNMENT ( #137, #208, ( #11 ) ) ;
#71 = FACE_OUTER_BOUND ( 'NONE', #155, .T. ) ;
#72 = AXIS2_PLACEMENT_3D ( 'NONE', #211, #143, #196 ) ;
#73 = CALENDAR_DATE ( 2024, 12, 7 ) ;
#74 = APPROVAL_DATE_TIME ( #170, #165 ) ;
#75 = EDGE_CURVE ( 'NONE', #231, #231, #15, .T. ) ;
#76 = DATE_TIME_ROLE ( 'creation_date' ) ;
#77 = SECURITY_CLASSIFICATION_LEVEL ( 'unclassified' ) ;
#78 = AXIS2_PLACEMENT_3D ( 'NONE', #68, #128, #167 ) ;
#79 = EDGE_LOOP ( 'NONE', ( #225 ) ) ;
#80 = CALENDAR_DATE ( 2024, 12, 7 ) ;
#81 = DIRECTION ( 'NONE',  ( 4.275831445896959482E-31, 1.000000000000000000, 1.224646799147353454E-16 ) ) ;
#82 = AXIS2_PLACEMENT_3D ( 'NONE', #10, #50, #237 ) ;
#83 = EDGE_LOOP ( 'NONE', ( #223 ) ) ;
#84 = DIRECTION ( 'NONE',  ( 4.275831445896959482E-31, 1.000000000000000000, 1.224646799147353454E-16 ) ) ;
#85 = PLANE ( 'NONE',  #209 ) ;
#86 = CC_DESIGN_PERSON_AND_ORGANIZATION_ASSIGNMENT ( #186, #13, ( #11 ) ) ;
#87 = CARTESIAN_POINT ( 'NONE',  ( 6.982962677686265133E-15, 0.3999999999999997446, 1.999999999999999556 ) ) ;
#88 = DIRECTION ( 'NONE',  ( 4.275831445896959482E-31, 1.000000000000000000, 1.224646799147353454E-16 ) ) ;
#89 = CARTESIAN_POINT ( 'NONE',  ( 1.466422162314116009E-13, 1.874699728327313799E-32, 42.00000000000000000 ) ) ;
#90 = EDGE_CURVE ( 'NONE', #64, #64, #107, .T. ) ;
#91 = PERSON_AND_ORGANIZATION ( #67, #66 ) ;
#92 = EDGE_CURVE ( 'NONE', #149, #149, #160, .T. ) ;
#93 = DESIGN_CONTEXT ( 'detailed design', #236, 'design' ) ;
#94 = APPROVAL_STATUS ( 'not_yet_approved' ) ;
#95 = DATE_AND_TIME ( #73, #224 ) ;
#96 = CLOSED_SHELL ( 'NONE', ( #43, #33, #150 ) ) ;
#97 = LOCAL_TIME ( 11, 23, 24.00000000000000000, #51 ) ;
#98 = EDGE_LOOP ( 'NONE', ( #120 ) ) ;
#99 = DIRECTION ( 'NONE',  ( -3.491481338843133355E-15, 1.224646799147353454E-16, -1.000000000000000000 ) ) ;
#100 = CC_DESIGN_APPROVAL ( #2, ( #119 ) ) ;
#101 = EDGE_CURVE ( 'NONE', #26, #26, #169, .T. ) ;
#102 = DIRECTION ( 'NONE',  ( 0.000000000000000000, 1.000000000000000000, 0.000000000000000000 ) ) ;
#103 = DIRECTION ( 'NONE',  ( -3.491481338843133355E-15, 1.224646799147353454E-16, -1.000000000000000000 ) ) ;
#104 = AXIS2_PLACEMENT_3D ( 'NONE', #9, #39, #159 ) ;
#105 = CARTESIAN_POINT ( 'NONE',  ( 4.276423536147513034E-47, 0.5000000000000000000, 0.000000000000000000 ) ) ;
#106 = ADVANCED_FACE ( 'NONE', ( #59 ), #139, .F. ) ;
#107 = CIRCLE ( 'NONE', #138, 0.4000000000000000222 ) ;
#108 = DIRECTION ( 'NONE',  ( -3.491481338843133355E-15, 1.224646799147353454E-16, -1.000000000000000000 ) ) ;
#109 = DIRECTION ( 'NONE',  ( -3.491481338843133355E-15, 1.224646799147353454E-16, -1.000000000000000000 ) ) ;
#110 = COORDINATED_UNIVERSAL_TIME_OFFSET ( 1, 0, .AHEAD. ) ;
#111 =( GEOMETRIC_REPRESENTATION_CONTEXT ( 3 ) GLOBAL_UNCERTAINTY_ASSIGNED_CONTEXT ( ( #131 ) ) GLOBAL_UNIT_ASSIGNED_CONTEXT ( ( #126, #207, #31 ) ) REPRESENTATION_CONTEXT ( 'NONE', 'WORKASPACE' ) );
#112 = COORDINATED_UNIVERSAL_TIME_OFFSET ( 1, 0, .AHEAD. ) ;
#113 = ORIENTED_EDGE ( 'NONE', *, *, #101, .T. ) ;
#114 = CC_DESIGN_PERSON_AND_ORGANIZATION_ASSIGNMENT ( #158, #226, ( #242 ) ) ;
#115 = ORIENTED_EDGE ( 'NONE', *, *, #140, .T. ) ;
#116 = APPROVAL_ROLE ( '' ) ;
#117 = EDGE_LOOP ( 'NONE', ( #113 ) ) ;
#118 = FACE_OUTER_BOUND ( 'NONE', #98, .T. ) ;
#119 = PRODUCT_DEFINITION_FORMATION_WITH_SPECIFIED_SOURCE ( 'ANY', '', #36, .NOT_KNOWN. ) ;
#120 = ORIENTED_EDGE ( 'NONE', *, *, #140, .F. ) ;
#121 = MANIFOLD_SOLID_BREP ( 'Corps-Déplacer/Copier1[2]', #96 ) ;
#122 = CARTESIAN_POINT ( 'NONE',  ( 6.982962677686266711E-15, 1.734723475976807094E-15, 2.000000000000000000 ) ) ;
#123 = AXIS2_PLACEMENT_3D ( 'NONE', #44, #145, #84 ) ;
#124 = MANIFOLD_SOLID_BREP ( 'Corps-Déplacer/Copier1[1]', #142 ) ;
#125 = CARTESIAN_POINT ( 'NONE',  ( 1.448964755619900406E-13, 2.999999999999993339, 41.50000000000000000 ) ) ;
#126 =( LENGTH_UNIT ( ) NAMED_UNIT ( * ) SI_UNIT ( .MILLI., .METRE. ) );
#127 = EDGE_CURVE ( 'NONE', #182, #182, #133, .T. ) ;
#128 = DIRECTION ( 'NONE',  ( 3.491481338843133355E-15, -1.224646799147353454E-16, 1.000000000000000000 ) ) ;
#129 = DIRECTION ( 'NONE',  ( -3.491481338843133355E-15, 1.224646799147353454E-16, -1.000000000000000000 ) ) ;
#130 = CALENDAR_DATE ( 2024, 12, 7 ) ;
#131 = UNCERTAINTY_MEASURE_WITH_UNIT (LENGTH_MEASURE( 1.000000000000000082E-05 ), #126, 'distance_accuracy_value', 'NONE');
#132 = APPROVAL_DATE_TIME ( #95, #216 ) ;
#133 = CIRCLE ( 'NONE', #197, 0.5000000000000000000 ) ;
#134 = PERSON_AND_ORGANIZATION_ROLE ( 'design_owner' ) ;
#135 = EDGE_LOOP ( 'NONE', ( #136 ) ) ;
#136 = ORIENTED_EDGE ( 'NONE', *, *, #75, .F. ) ;
#137 = DATE_AND_TIME ( #222, #97 ) ;
#138 = AXIS2_PLACEMENT_3D ( 'NONE', #62, #214, #102 ) ;
#139 = PLANE ( 'NONE',  #217 ) ;
#140 = EDGE_CURVE ( 'NONE', #27, #27, #49, .T. ) ;
#141 = EDGE_LOOP ( 'NONE', ( #210 ) ) ;
#142 = CLOSED_SHELL ( 'NONE', ( #172, #61, #157, #204, #4, #106 ) ) ;
#143 = DIRECTION ( 'NONE',  ( -3.491481338843133355E-15, 1.224646799147353454E-16, -1.000000000000000000 ) ) ;
#144 = CC_DESIGN_SECURITY_CLASSIFICATION ( #11, ( #119 ) ) ;
#145 = DIRECTION ( 'NONE',  ( -3.491481338843133355E-15, 1.224646799147353454E-16, -1.000000000000000000 ) ) ;
#146 = PRODUCT_DEFINITION_SHAPE ( 'NONE', 'NONE',  #242 ) ;
#147 = DIRECTION ( 'NONE',  ( -4.275831445896959482E-31, -1.000000000000000000, -1.224646799147353454E-16 ) ) ;
#148 = APPROVAL_PERSON_ORGANIZATION ( #171, #216, #154 ) ;
#149 = VERTEX_POINT ( 'NONE', #198 ) ;
#150 = ADVANCED_FACE ( 'NONE', ( #183 ), #48, .T. ) ;
#151 = FACE_OUTER_BOUND ( 'NONE', #174, .T. ) ;
#152 = APPROVAL_PERSON_ORGANIZATION ( #38, #165, #116 ) ;
#153 = DATE_AND_TIME ( #130, #213 ) ;
#154 = APPROVAL_ROLE ( '' ) ;
#155 = EDGE_LOOP ( 'NONE', ( #55 ) ) ;
#156 = COORDINATED_UNIVERSAL_TIME_OFFSET ( 1, 0, .AHEAD. ) ;
#157 = ADVANCED_FACE ( 'NONE', ( #151, #47 ), #21, .T. ) ;
#158 = PERSON_AND_ORGANIZATION ( #67, #66 ) ;
#159 = DIRECTION ( 'NONE',  ( 4.275831445896959482E-31, 1.000000000000000000, 1.224646799147353454E-16 ) ) ;
#160 = CIRCLE ( 'NONE', #177, 2.499999999999998224 ) ;
#161 = CYLINDRICAL_SURFACE ( 'NONE', #72, 0.5000000000000000000 ) ;
#162 = DIRECTION ( 'NONE',  ( -3.491481338843133355E-15, 1.224646799147353454E-16, -1.000000000000000000 ) ) ;
#163 = DIRECTION ( 'NONE',  ( -3.491481338843133355E-15, 1.224646799147353454E-16, -1.000000000000000000 ) ) ;
#164 = CARTESIAN_POINT ( 'NONE',  ( 1.850485109586868882E-14, 2.999999999999994671, 5.300000000000023803 ) ) ;
#165 = APPROVAL ( #94, 'UNSPECIFIED' ) ;
#166 = DIRECTION ( 'NONE',  ( 3.491481338843133355E-15, -1.224646799147353454E-16, 1.000000000000000000 ) ) ;
#167 = DIRECTION ( 'NONE',  ( 0.000000000000000000, -1.000000000000000000, 0.000000000000000000 ) ) ;
#168 = DIRECTION ( 'NONE',  ( 1.000000000000000000, 0.000000000000000000, 0.000000000000000000 ) ) ;
#169 = CIRCLE ( 'NONE', #104, 0.5000000000000000000 ) ;
#170 = DATE_AND_TIME ( #14, #41 ) ;
#171 = PERSON_AND_ORGANIZATION ( #67, #66 ) ;
#172 = ADVANCED_FACE ( 'NONE', ( #200 ), #85, .F. ) ;
#173 = PERSON_AND_ORGANIZATION_ROLE ( 'design_supplier' ) ;
#174 = EDGE_LOOP ( 'NONE', ( #212 ) ) ;
#175 = COORDINATED_UNIVERSAL_TIME_OFFSET ( 1, 0, .AHEAD. ) ;
#176 = DIRECTION ( 'NONE',  ( 0.000000000000000000, 1.000000000000000000, 0.000000000000000000 ) ) ;
#177 = AXIS2_PLACEMENT_3D ( 'NONE', #7, #163, #181 ) ;
#178 = EDGE_LOOP ( 'NONE', ( #35 ) ) ;
#179 = FACE_OUTER_BOUND ( 'NONE', #117, .T. ) ;
#180 = CONICAL_SURFACE ( 'NONE', #25, 2.499999999999998224, 0.7853981633974479459 ) ;
#181 = DIRECTION ( 'NONE',  ( 0.000000000000000000, 1.000000000000000000, 0.000000000000000000 ) ) ;
#182 = VERTEX_POINT ( 'NONE', #218 ) ;
#183 = FACE_OUTER_BOUND ( 'NONE', #79, .T. ) ;
#184 = CYLINDRICAL_SURFACE ( 'NONE', #194, 2.999999999999996447 ) ;
#185 = CARTESIAN_POINT ( 'NONE',  ( 6.982962677686265133E-15, -2.449293598294706414E-16, 1.999999999999999556 ) ) ;
#186 = PERSON_AND_ORGANIZATION ( #67, #66 ) ;
#187 = AXIS2_PLACEMENT_3D ( 'NONE', #65, #109, #235 ) ;
#188 = SHAPE_DEFINITION_REPRESENTATION ( #146, #42 ) ;
#189 = PERSON_AND_ORGANIZATION_ROLE ( 'creator' ) ;
#190 = APPLICATION_PROTOCOL_DEFINITION ( 'international standard', 'config_control_design', 1994, #233 ) ;
#191 = EDGE_LOOP ( 'NONE', ( #23 ) ) ;
#192 = ORIENTED_EDGE ( 'NONE', *, *, #101, .F. ) ;
#193 = DIRECTION ( 'NONE',  ( 0.000000000000000000, 1.000000000000000000, 0.000000000000000000 ) ) ;
#194 = AXIS2_PLACEMENT_3D ( 'NONE', #219, #129, #12 ) ;
#195 = FACE_OUTER_BOUND ( 'NONE', #19, .T. ) ;
#196 = DIRECTION ( 'NONE',  ( 4.275831445896959482E-31, 1.000000000000000000, 1.224646799147353454E-16 ) ) ;
#197 = AXIS2_PLACEMENT_3D ( 'NONE', #185, #232, #69 ) ;
#198 = CARTESIAN_POINT ( 'NONE',  ( 1.466422162314116009E-13, 2.499999999999992895, 42.00000000000000000 ) ) ;
#199 = CARTESIAN_POINT ( 'NONE',  ( 9.426999614876461637E-15, 0.3999999999999996891, 2.700000000000000178 ) ) ;
#200 = FACE_OUTER_BOUND ( 'NONE', #37, .T. ) ;
#201 = VERTEX_POINT ( 'NONE', #164 ) ;
#202 = DATE_AND_TIME ( #80, #32 ) ;
#203 = EDGE_LOOP ( 'NONE', ( #206 ) ) ;
#204 = ADVANCED_FACE ( 'NONE', ( #29, #71 ), #184, .T. ) ;
#205 = APPROVAL_PERSON_ORGANIZATION ( #91, #2, #240 ) ;
#206 = ORIENTED_EDGE ( 'NONE', *, *, #90, .T. ) ;
#207 =( NAMED_UNIT ( * ) PLANE_ANGLE_UNIT ( ) SI_UNIT ( $, .RADIAN. ) );
#208 = DATE_TIME_ROLE ( 'classification_date' ) ;
#209 = AXIS2_PLACEMENT_3D ( 'NONE', #122, #166, #147 ) ;
#210 = ORIENTED_EDGE ( 'NONE', *, *, #127, .T. ) ;
#211 = CARTESIAN_POINT ( 'NONE',  ( 0.000000000000000000, 0.000000000000000000, 0.000000000000000000 ) ) ;
#212 = ORIENTED_EDGE ( 'NONE', *, *, #18, .T. ) ;
#213 = LOCAL_TIME ( 11, 23, 24.00000000000000000, #175 ) ;
#214 = DIRECTION ( 'NONE',  ( -3.491481338843133355E-15, 1.224646799147353454E-16, -1.000000000000000000 ) ) ;
#215 = CARTESIAN_POINT ( 'NONE',  ( 1.850485109586868882E-14, -6.490628035481001506E-16, 5.300000000000023803 ) ) ;
#216 = APPROVAL ( #239, 'UNSPECIFIED' ) ;
#217 = AXIS2_PLACEMENT_3D ( 'NONE', #89, #108, #88 ) ;
#218 = CARTESIAN_POINT ( 'NONE',  ( 6.982962677686265133E-15, 0.4999999999999997780, 1.999999999999999556 ) ) ;
#219 = CARTESIAN_POINT ( 'NONE',  ( 0.000000000000000000, 0.000000000000000000, 0.000000000000000000 ) ) ;
#220 = MECHANICAL_CONTEXT ( 'NONE', #233, 'mechanical' ) ;
#221 = PERSON_AND_ORGANIZATION ( #67, #66 ) ;
#222 = CALENDAR_DATE ( 2024, 12, 7 ) ;
#223 = ORIENTED_EDGE ( 'NONE', *, *, #18, .F. ) ;
#224 = LOCAL_TIME ( 11, 23, 24.00000000000000000, #112 ) ;
#225 = ORIENTED_EDGE ( 'NONE', *, *, #127, .F. ) ;
#226 = PERSON_AND_ORGANIZATION_ROLE ( 'creator' ) ;
#227 = PLANE ( 'NONE',  #123 ) ;
#228 = DIRECTION ( 'NONE',  ( -3.491481338843133355E-15, 1.224646799147353454E-16, -1.000000000000000000 ) ) ;
#229 = CARTESIAN_POINT ( 'NONE',  ( 0.000000000000000000, 0.000000000000000000, 0.000000000000000000 ) ) ;
#230 = DIRECTION ( 'NONE',  ( 0.000000000000000000, 1.000000000000000000, 0.000000000000000000 ) ) ;
#231 = VERTEX_POINT ( 'NONE', #125 ) ;
#232 = DIRECTION ( 'NONE',  ( -3.491481338843133355E-15, 1.224646799147353454E-16, -1.000000000000000000 ) ) ;
#233 = APPLICATION_CONTEXT ( 'configuration controlled 3d designs of mechanical parts and assemblies' ) ;
#234 = CIRCLE ( 'NONE', #46, 2.999999999999995115 ) ;
#235 = DIRECTION ( 'NONE',  ( 0.000000000000000000, 1.000000000000000000, 0.000000000000000000 ) ) ;
#236 = APPLICATION_CONTEXT ( 'configuration controlled 3d designs of mechanical parts and assemblies' ) ;
#237 = DIRECTION ( 'NONE',  ( -4.275831445896959482E-31, -1.000000000000000000, -1.224646799147353454E-16 ) ) ;
#238 = AXIS2_PLACEMENT_3D ( 'NONE', #241, #58, #168 ) ;
#239 = APPROVAL_STATUS ( 'not_yet_approved' ) ;
#240 = APPROVAL_ROLE ( '' ) ;
#241 = CARTESIAN_POINT ( 'NONE',  ( 0.000000000000000000, 0.000000000000000000, 0.000000000000000000 ) ) ;
#242 = PRODUCT_DEFINITION ( 'UNKNOWN', '', #119, #93 ) ;
#243 = CC_DESIGN_APPROVAL ( #165, ( #11 ) ) ;
ENDSEC;
END-ISO-10303-21;
