ISO-10303-21;
HEADER;
FILE_DESCRIPTION (( 'STEP AP203' ),
    '1' );
FILE_NAME ('978772.step',
    '2021-12-17T10:35:12',
    ( '' ),
    ( '' ),
    'SwSTEP 2.0',
    'SolidWorks 2019',
    '' );
FILE_SCHEMA (( 'CONFIG_CONTROL_DESIGN' ));
ENDSEC;

DATA;
#1 = DIRECTION ( 'NONE',  ( 0.0000000000000000000, 1.000000000000000000, 0.0000000000000000000 ) ) ;
#2 = ADVANCED_FACE ( 'NONE', ( #91 ), #70, .F. ) ;
#3 = EDGE_LOOP ( 'NONE', ( #274 ) ) ;
#4 = FACE_BOUND ( 'NONE', #226, .T. ) ;
#5 = CIRCLE ( 'NONE', #235, 0.5218841563818269469 ) ;
#6 = CARTESIAN_POINT ( 'NONE',  ( 2.232193475113274761E-14, -7.829480753521213609E-16, 6.393256209849567995 ) ) ;
#7 = DIRECTION ( 'NONE',  ( -3.491481338843133355E-15, 1.224646799147353207E-16, -1.000000000000000000 ) ) ;
#8 = AXIS2_PLACEMENT_3D ( 'NONE', #231, #140, #256 ) ;
#9 = VERTEX_POINT ( 'NONE', #171 ) ;
#10 = EDGE_CURVE ( 'NONE', #217, #217, #76, .T. ) ;
#11 = FACE_OUTER_BOUND ( 'NONE', #103, .T. ) ;
#12 = PERSON ( 'UNSPECIFIED', 'UNSPECIFIED', 'UNSPECIFIED', ('UNSPECIFIED'), ('UNSPECIFIED'), ('UNSPECIFIED') ) ;
#13 = CARTESIAN_POINT ( 'NONE',  ( 1.042207179644675275E-13, -3.655570695454848748E-15, 29.84999999999999787 ) ) ;
#14 = CLOSED_SHELL ( 'NONE', ( #280, #120, #142, #49, #97 ) ) ;
#15 = APPROVAL_ROLE ( '' ) ;
#16 = CC_DESIGN_PERSON_AND_ORGANIZATION_ASSIGNMENT ( #221, #130, ( #233 ) ) ;
#17 = EDGE_LOOP ( 'NONE', ( #75 ) ) ;
#18 = LOCAL_TIME ( 11, 35, 12.00000000000000000, #180 ) ;
#19 = MECHANICAL_CONTEXT ( 'NONE', #269, 'mechanical' ) ;
#20 = VERTEX_POINT ( 'NONE', #278 ) ;
#21 = EDGE_LOOP ( 'NONE', ( #186 ) ) ;
#22 = DIRECTION ( 'NONE',  ( 3.491481338843133355E-15, -1.224646799147353207E-16, 1.000000000000000000 ) ) ;
#23 = CIRCLE ( 'NONE', #253, 0.7499999999999971134 ) ;
#24 = AXIS2_PLACEMENT_3D ( 'NONE', #36, #61, #196 ) ;
#25 = DIRECTION ( 'NONE',  ( -3.491481338843133355E-15, 1.224646799147353207E-16, -1.000000000000000000 ) ) ;
#26 = ADVANCED_FACE ( 'NONE', ( #258, #161 ), #211, .T. ) ;
#27 = FACE_OUTER_BOUND ( 'NONE', #17, .T. ) ;
#28 = FACE_OUTER_BOUND ( 'NONE', #21, .T. ) ;
#29 = FACE_BOUND ( 'NONE', #284, .T. ) ;
#30 = CC_DESIGN_APPROVAL ( #55, ( #189 ) ) ;
#31 = FACE_OUTER_BOUND ( 'NONE', #157, .T. ) ;
#32 = ADVANCED_BREP_SHAPE_REPRESENTATION ( '978772', ( #40, #132, #60 ), #42 ) ;
#33 = DATE_AND_TIME ( #185, #260 ) ;
#34 = FACE_OUTER_BOUND ( 'NONE', #247, .T. ) ;
#35 = COORDINATED_UNIVERSAL_TIME_OFFSET ( 1, 0, .AHEAD. ) ;
#36 = CARTESIAN_POINT ( 'NONE',  ( -4.381245557644772956E-31, 1.536734075808071784E-32, -1.254838600711654743E-16 ) ) ;
#37 = FACE_OUTER_BOUND ( 'NONE', #45, .T. ) ;
#38 = DESIGN_CONTEXT ( 'detailed design', #168, 'design' ) ;
#39 = ADVANCED_FACE ( 'NONE', ( #27 ), #74, .F. ) ;
#40 = MANIFOLD_SOLID_BREP ( 'Corps-Déplacer/Copier1[1]', #182 ) ;
#41 =( NAMED_UNIT ( * ) SI_UNIT ( $, .STERADIAN. ) SOLID_ANGLE_UNIT ( ) );
#42 =( GEOMETRIC_REPRESENTATION_CONTEXT ( 3 ) GLOBAL_UNCERTAINTY_ASSIGNED_CONTEXT ( ( #43 ) ) GLOBAL_UNIT_ASSIGNED_CONTEXT ( ( #273, #276, #41 ) ) REPRESENTATION_CONTEXT ( 'NONE', 'WORKASPACE' ) );
#43 = UNCERTAINTY_MEASURE_WITH_UNIT (LENGTH_MEASURE( 1.000000000000000082E-05 ), #273, 'distance_accuracy_value', 'NONE');
#44 = ORIENTED_EDGE ( 'NONE', *, *, #207, .F. ) ;
#45 = EDGE_LOOP ( 'NONE', ( #188 ) ) ;
#46 = AXIS2_PLACEMENT_3D ( 'NONE', #78, #166, #265 ) ;
#47 = ORIENTED_EDGE ( 'NONE', *, *, #116, .T. ) ;
#48 = EDGE_LOOP ( 'NONE', ( #105 ) ) ;
#49 = ADVANCED_FACE ( 'NONE', ( #229, #165 ), #257, .T. ) ;
#50 = DIRECTION ( 'NONE',  ( -4.275831445896958607E-31, -1.000000000000000000, -1.224646799147353207E-16 ) ) ;
#51 = CIRCLE ( 'NONE', #183, 0.7499999999999984457 ) ;
#52 = FACE_OUTER_BOUND ( 'NONE', #220, .T. ) ;
#53 = CARTESIAN_POINT ( 'NONE',  ( 1.047444401652940007E-13, 4.499279347985507822E-33, 30.00000000000000000 ) ) ;
#54 = DIRECTION ( 'NONE',  ( 4.275831445896958607E-31, 1.000000000000000000, 1.224646799147353207E-16 ) ) ;
#55 = APPROVAL ( #219, 'UNSPECIFIED' ) ;
#56 = AXIS2_PLACEMENT_3D ( 'NONE', #170, #7, #293 ) ;
#57 = EDGE_CURVE ( 'NONE', #9, #9, #23, .T. ) ;
#58 = DIRECTION ( 'NONE',  ( 3.690339936240878193E-31, 1.000000000000000000, 1.038738347607804937E-16 ) ) ;
#59 = DIRECTION ( 'NONE',  ( 3.491481338843133355E-15, -1.224646799147353207E-16, 1.000000000000000000 ) ) ;
#60 = AXIS2_PLACEMENT_3D ( 'NONE', #250, #129, #133 ) ;
#61 = DIRECTION ( 'NONE',  ( -3.491481338843133355E-15, 1.224646799147353207E-16, -1.000000000000000000 ) ) ;
#62 = CARTESIAN_POINT ( 'NONE',  ( 1.042207179644675275E-13, 0.7499999999999947820, 29.84999999999999787 ) ) ;
#63 = APPROVAL_PERSON_ORGANIZATION ( #301, #285, #127 ) ;
#64 = PRODUCT_RELATED_PRODUCT_CATEGORY ( 'detail', '', ( #233 ) ) ;
#65 = PERSON_AND_ORGANIZATION ( #12, #147 ) ;
#66 = ORIENTED_EDGE ( 'NONE', *, *, #10, .F. ) ;
#67 = LOCAL_TIME ( 11, 35, 12.00000000000000000, #290 ) ;
#68 = CALENDAR_DATE ( 2021, 17, 12 ) ;
#69 = EDGE_CURVE ( 'NONE', #125, #125, #224, .T. ) ;
#70 = PLANE ( 'NONE',  #192 ) ;
#71 = DATE_TIME_ROLE ( 'classification_date' ) ;
#72 = DIRECTION ( 'NONE',  ( -3.491481338843133355E-15, 1.224646799147353207E-16, -1.000000000000000000 ) ) ;
#73 = DIRECTION ( 'NONE',  ( -3.491481338843133355E-15, 1.224646799147353207E-16, -1.000000000000000000 ) ) ;
#74 = PLANE ( 'NONE',  #240 ) ;
#75 = ORIENTED_EDGE ( 'NONE', *, *, #69, .F. ) ;
#76 = CIRCLE ( 'NONE', #245, 0.6079999999999998739 ) ;
#77 = DIRECTION ( 'NONE',  ( 4.275831445896958607E-31, 1.000000000000000000, 1.224646799147353207E-16 ) ) ;
#78 = CARTESIAN_POINT ( 'NONE',  ( 1.955229549752154679E-14, -8.673617379884035472E-16, 5.599999999999999645 ) ) ;
#79 = DIRECTION ( 'NONE',  ( -3.491481338843133355E-15, 1.224646799147353207E-16, -1.000000000000000000 ) ) ;
#80 = APPROVAL_STATUS ( 'not_yet_approved' ) ;
#81 = CALENDAR_DATE ( 2021, 17, 12 ) ;
#82 = CARTESIAN_POINT ( 'NONE',  ( 5.480661734552027272E-16, 0.5218841563818269469, 0.1569723908754439567 ) ) ;
#83 = ORIENTED_EDGE ( 'NONE', *, *, #200, .T. ) ;
#84 = CARTESIAN_POINT ( 'NONE',  ( 2.094888803305879619E-15, 0.6079999999999994298, 0.5999999999999999778 ) ) ;
#85 = CARTESIAN_POINT ( 'NONE',  ( -3.312287696170532866E-31, 0.2500000000000000000, -9.486769009248163798E-17 ) ) ;
#86 = ORIENTED_EDGE ( 'NONE', *, *, #200, .F. ) ;
#87 = APPROVAL_ROLE ( '' ) ;
#88 = AXIS2_PLACEMENT_3D ( 'NONE', #294, #59, #148 ) ;
#89 = EDGE_LOOP ( 'NONE', ( #44 ) ) ;
#90 = DIRECTION ( 'NONE',  ( -3.491481338843133355E-15, 1.224646799147353207E-16, -1.000000000000000000 ) ) ;
#91 = FACE_OUTER_BOUND ( 'NONE', #117, .T. ) ;
#92 = CIRCLE ( 'NONE', #56, 0.6079999999999995408 ) ;
#93 = CARTESIAN_POINT ( 'NONE',  ( 1.047444401652940007E-13, -3.673940397442059178E-15, 30.00000000000000000 ) ) ;
#94 = DIRECTION ( 'NONE',  ( 3.491481338843133355E-15, -1.224646799147353207E-16, 1.000000000000000000 ) ) ;
#95 = DATE_AND_TIME ( #68, #67 ) ;
#96 = CYLINDRICAL_SURFACE ( 'NONE', #241, 0.6079999999999999849 ) ;
#97 = ADVANCED_FACE ( 'NONE', ( #52 ), #139, .T. ) ;
#98 = LOCAL_TIME ( 11, 35, 12.00000000000000000, #156 ) ;
#99 = CARTESIAN_POINT ( 'NONE',  ( 5.480661734552025300E-16, -1.922357360401195723E-17, 0.1569723908754439012 ) ) ;
#100 = FACE_OUTER_BOUND ( 'NONE', #134, .T. ) ;
#101 = ADVANCED_FACE ( 'NONE', ( #28, #4 ), #137, .T. ) ;
#102 = DIRECTION ( 'NONE',  ( 0.0000000000000000000, 1.000000000000000000, 0.0000000000000000000 ) ) ;
#103 = EDGE_LOOP ( 'NONE', ( #83 ) ) ;
#104 = VERTEX_POINT ( 'NONE', #174 ) ;
#105 = ORIENTED_EDGE ( 'NONE', *, *, #57, .F. ) ;
#106 = ADVANCED_FACE ( 'NONE', ( #29, #212 ), #275, .T. ) ;
#107 = ORIENTED_EDGE ( 'NONE', *, *, #116, .F. ) ;
#108 = VERTEX_POINT ( 'NONE', #298 ) ;
#109 = PRODUCT_DEFINITION ( 'UNKNOWN', '', #189, #38 ) ;
#110 = DATE_AND_TIME ( #81, #98 ) ;
#111 = CARTESIAN_POINT ( 'NONE',  ( 1.675911042644703695E-14, -5.878304635907294211E-16, 4.799999999999999822 ) ) ;
#112 = AXIS2_PLACEMENT_3D ( 'NONE', #197, #236, #126 ) ;
#113 = APPROVAL_DATE_TIME ( #33, #195 ) ;
#114 = CARTESIAN_POINT ( 'NONE',  ( 2.232193475113274761E-14, -7.829480753521213609E-16, 6.393256209849567995 ) ) ;
#115 = CARTESIAN_POINT ( 'NONE',  ( 0.0000000000000000000, 0.0000000000000000000, 0.0000000000000000000 ) ) ;
#116 = EDGE_CURVE ( 'NONE', #252, #252, #5, .T. ) ;
#117 = EDGE_LOOP ( 'NONE', ( #210 ) ) ;
#118 = LOCAL_TIME ( 11, 35, 12.00000000000000000, #201 ) ;
#119 = DIRECTION ( 'NONE',  ( 4.275831445896958607E-31, 1.000000000000000000, 1.224646799147352961E-16 ) ) ;
#120 = ADVANCED_FACE ( 'NONE', ( #145, #100 ), #302, .T. ) ;
#121 = DIRECTION ( 'NONE',  ( -3.491481338843133355E-15, 1.224646799147353207E-16, -1.000000000000000000 ) ) ;
#122 = CARTESIAN_POINT ( 'NONE',  ( -2.190622778822386478E-31, 7.683670379040358919E-33, -6.274193003558273716E-17 ) ) ;
#123 = SHAPE_DEFINITION_REPRESENTATION ( #138, #32 ) ;
#124 = FACE_OUTER_BOUND ( 'NONE', #154, .T. ) ;
#125 = VERTEX_POINT ( 'NONE', #202 ) ;
#126 = DIRECTION ( 'NONE',  ( -3.690339936240878193E-31, -1.000000000000000000, -1.038738347607804937E-16 ) ) ;
#127 = APPROVAL_ROLE ( '' ) ;
#128 = PERSON_AND_ORGANIZATION ( #12, #147 ) ;
#129 = DIRECTION ( 'NONE',  ( 0.0000000000000000000, 0.0000000000000000000, 1.000000000000000000 ) ) ;
#130 = PERSON_AND_ORGANIZATION_ROLE ( 'design_owner' ) ;
#131 = CC_DESIGN_PERSON_AND_ORGANIZATION_ASSIGNMENT ( #160, #281, ( #198 ) ) ;
#132 = MANIFOLD_SOLID_BREP ( 'Corps-Déplacer/Copier1[2]', #14 ) ;
#133 = DIRECTION ( 'NONE',  ( 1.000000000000000000, 0.0000000000000000000, 0.0000000000000000000 ) ) ;
#134 = EDGE_LOOP ( 'NONE', ( #47 ) ) ;
#135 = ORIENTED_EDGE ( 'NONE', *, *, #207, .T. ) ;
#136 = DIRECTION ( 'NONE',  ( 4.275831445896958607E-31, 1.000000000000000000, 1.224646799147353207E-16 ) ) ;
#137 = CONICAL_SURFACE ( 'NONE', #184, 0.5999999999999986455, 0.7853981633974450594 ) ;
#138 = PRODUCT_DEFINITION_SHAPE ( 'NONE', 'NONE',  #109 ) ;
#139 = PLANE ( 'NONE',  #8 ) ;
#140 = DIRECTION ( 'NONE',  ( 3.491481338843133355E-15, -1.224646799147353207E-16, 1.000000000000000000 ) ) ;
#141 = DIRECTION ( 'NONE',  ( -3.491481338843133355E-15, 1.224646799147353207E-16, -1.000000000000000000 ) ) ;
#142 = ADVANCED_FACE ( 'NONE', ( #199, #31 ), #230, .T. ) ;
#143 = DIRECTION ( 'NONE',  ( 0.0000000000000000000, -1.000000000000000000, 0.0000000000000000000 ) ) ;
#144 = PERSON_AND_ORGANIZATION_ROLE ( 'design_supplier' ) ;
#145 = FACE_BOUND ( 'NONE', #155, .T. ) ;
#146 = DIRECTION ( 'NONE',  ( 0.0000000000000000000, 1.000000000000000000, 0.0000000000000000000 ) ) ;
#147 = ORGANIZATION ( 'UNSPECIFIED', 'UNSPECIFIED', '' ) ;
#148 = DIRECTION ( 'NONE',  ( -6.335295869694859896E-31, -1.000000000000000000, -1.783227257377475838E-16 ) ) ;
#149 = CC_DESIGN_APPROVAL ( #195, ( #198 ) ) ;
#150 = CALENDAR_DATE ( 2021, 17, 12 ) ;
#151 = AXIS2_PLACEMENT_3D ( 'NONE', #115, #288, #136 ) ;
#152 = APPLICATION_PROTOCOL_DEFINITION ( 'international standard', 'config_control_design', 1994, #269 ) ;
#153 = AXIS2_PLACEMENT_3D ( 'NONE', #232, #90, #164 ) ;
#154 = EDGE_LOOP ( 'NONE', ( #209 ) ) ;
#155 = EDGE_LOOP ( 'NONE', ( #86 ) ) ;
#156 = COORDINATED_UNIVERSAL_TIME_OFFSET ( 1, 0, .AHEAD. ) ;
#157 = EDGE_LOOP ( 'NONE', ( #303 ) ) ;
#158 = EDGE_CURVE ( 'NONE', #104, #104, #259, .T. ) ;
#159 = CC_DESIGN_SECURITY_CLASSIFICATION ( #198, ( #189 ) ) ;
#160 = PERSON_AND_ORGANIZATION ( #12, #147 ) ;
#161 = FACE_OUTER_BOUND ( 'NONE', #300, .T. ) ;
#162 = EDGE_CURVE ( 'NONE', #20, #20, #218, .T. ) ;
#163 = CIRCLE ( 'NONE', #24, 0.2500000000000000000 ) ;
#164 = DIRECTION ( 'NONE',  ( 0.0000000000000000000, 1.000000000000000000, 0.0000000000000000000 ) ) ;
#165 = FACE_OUTER_BOUND ( 'NONE', #3, .T. ) ;
#166 = DIRECTION ( 'NONE',  ( -3.491481338843133355E-15, 1.224646799147353207E-16, -1.000000000000000000 ) ) ;
#167 = CIRCLE ( 'NONE', #193, 0.6079999999999999849 ) ;
#168 = APPLICATION_CONTEXT ( 'configuration controlled 3d designs of mechanical parts and assemblies' ) ;
#169 = PLANE ( 'NONE',  #295 ) ;
#170 = CARTESIAN_POINT ( 'NONE',  ( 2.094888803305879224E-15, -7.347880794884117764E-17, 0.5999999999999998668 ) ) ;
#171 = CARTESIAN_POINT ( 'NONE',  ( 2.232193475113274761E-14, 0.7499999999999963363, 6.393256209849567995 ) ) ;
#172 = AXIS2_PLACEMENT_3D ( 'NONE', #296, #121, #173 ) ;
#173 = DIRECTION ( 'NONE',  ( 0.0000000000000000000, 1.000000000000000000, 0.0000000000000000000 ) ) ;
#174 = CARTESIAN_POINT ( 'NONE',  ( 1.675911042644703695E-14, 0.6079999999999994298, 4.799999999999999822 ) ) ;
#175 = EDGE_CURVE ( 'NONE', #248, #248, #51, .T. ) ;
#176 = APPROVAL_DATE_TIME ( #246, #55 ) ;
#177 = VERTEX_POINT ( 'NONE', #84 ) ;
#178 = AXIS2_PLACEMENT_3D ( 'NONE', #6, #94, #143 ) ;
#179 = PERSON_AND_ORGANIZATION_ROLE ( 'creator' ) ;
#180 = COORDINATED_UNIVERSAL_TIME_OFFSET ( 1, 0, .AHEAD. ) ;
#181 = CC_DESIGN_PERSON_AND_ORGANIZATION_ASSIGNMENT ( #65, #179, ( #109 ) ) ;
#182 = CLOSED_SHELL ( 'NONE', ( #2, #272, #215, #106, #26, #101, #39 ) ) ;
#183 = AXIS2_PLACEMENT_3D ( 'NONE', #13, #79, #271 ) ;
#184 = AXIS2_PLACEMENT_3D ( 'NONE', #93, #141, #234 ) ;
#185 = CALENDAR_DATE ( 2021, 17, 12 ) ;
#186 = ORIENTED_EDGE ( 'NONE', *, *, #175, .F. ) ;
#187 = DIRECTION ( 'NONE',  ( -3.491481338843133355E-15, 1.224646799147353207E-16, -1.000000000000000000 ) ) ;
#188 = ORIENTED_EDGE ( 'NONE', *, *, #162, .T. ) ;
#189 = PRODUCT_DEFINITION_FORMATION_WITH_SPECIFIED_SOURCE ( 'ANY', '', #233, .NOT_KNOWN. ) ;
#190 = ORIENTED_EDGE ( 'NONE', *, *, #267, .F. ) ;
#191 = ORIENTED_EDGE ( 'NONE', *, *, #175, .T. ) ;
#192 = AXIS2_PLACEMENT_3D ( 'NONE', #228, #22, #50 ) ;
#193 = AXIS2_PLACEMENT_3D ( 'NONE', #243, #213, #102 ) ;
#194 = CARTESIAN_POINT ( 'NONE',  ( 1.675911042644703695E-14, 0.6079999999999994298, 4.799999999999999822 ) ) ;
#195 = APPROVAL ( #227, 'UNSPECIFIED' ) ;
#196 = DIRECTION ( 'NONE',  ( 4.275831445896958607E-31, 1.000000000000000000, 1.224646799147353454E-16 ) ) ;
#197 = CARTESIAN_POINT ( 'NONE',  ( 5.480661734552025300E-16, -1.922357360401195723E-17, 0.1569723908754439012 ) ) ;
#198 = SECURITY_CLASSIFICATION ( '', '', #255 ) ;
#199 = FACE_BOUND ( 'NONE', #251, .T. ) ;
#200 = EDGE_CURVE ( 'NONE', #277, #277, #163, .T. ) ;
#201 = COORDINATED_UNIVERSAL_TIME_OFFSET ( 1, 0, .AHEAD. ) ;
#202 = CARTESIAN_POINT ( 'NONE',  ( 1.047444401652940007E-13, 0.5999999999999949818, 30.00000000000000000 ) ) ;
#203 = AXIS2_PLACEMENT_3D ( 'NONE', #270, #268, #146 ) ;
#204 = DATE_TIME_ROLE ( 'creation_date' ) ;
#205 = EDGE_LOOP ( 'NONE', ( #261 ) ) ;
#206 = APPROVAL_PERSON_ORGANIZATION ( #244, #55, #15 ) ;
#207 = EDGE_CURVE ( 'NONE', #108, #108, #167, .T. ) ;
#208 = PERSON_AND_ORGANIZATION_ROLE ( 'creator' ) ;
#209 = ORIENTED_EDGE ( 'NONE', *, *, #158, .F. ) ;
#210 = ORIENTED_EDGE ( 'NONE', *, *, #158, .T. ) ;
#211 = CYLINDRICAL_SURFACE ( 'NONE', #151, 0.7499999999999978906 ) ;
#212 = FACE_OUTER_BOUND ( 'NONE', #205, .T. ) ;
#213 = DIRECTION ( 'NONE',  ( -3.491481338843133355E-15, 1.224646799147353207E-16, -1.000000000000000000 ) ) ;
#214 = DIRECTION ( 'NONE',  ( 3.491481338843133355E-15, -1.224646799147353207E-16, 1.000000000000000000 ) ) ;
#215 = ADVANCED_FACE ( 'NONE', ( #238, #37 ), #216, .F. ) ;
#216 = TOROIDAL_SURFACE ( 'NONE', #46, 2.608000000000000096, 2.000000000000000000 ) ;
#217 = VERTEX_POINT ( 'NONE', #194 ) ;
#218 = CIRCLE ( 'NONE', #172, 0.6761483474218600298 ) ;
#219 = APPROVAL_STATUS ( 'not_yet_approved' ) ;
#220 = EDGE_LOOP ( 'NONE', ( #66 ) ) ;
#221 = PERSON_AND_ORGANIZATION ( #12, #147 ) ;
#222 = CC_DESIGN_PERSON_AND_ORGANIZATION_ASSIGNMENT ( #128, #208, ( #189 ) ) ;
#223 = APPLICATION_PROTOCOL_DEFINITION ( 'international standard', 'config_control_design', 1994, #168 ) ;
#224 = CIRCLE ( 'NONE', #153, 0.5999999999999986455 ) ;
#225 = APPROVAL_DATE_TIME ( #299, #285 ) ;
#226 = EDGE_LOOP ( 'NONE', ( #287 ) ) ;
#227 = APPROVAL_STATUS ( 'not_yet_approved' ) ;
#228 = CARTESIAN_POINT ( 'NONE',  ( 1.675911042644703695E-14, 4.559269739292038397E-33, 4.799999999999999822 ) ) ;
#229 = FACE_OUTER_BOUND ( 'NONE', #279, .T. ) ;
#230 = CONICAL_SURFACE ( 'NONE', #88, 0.6079999999999995408, 0.1919862177193697450 ) ;
#231 = CARTESIAN_POINT ( 'NONE',  ( 1.675911042644703695E-14, 4.559269739292038397E-33, 4.799999999999999822 ) ) ;
#232 = CARTESIAN_POINT ( 'NONE',  ( 1.047444401652940007E-13, -3.673940397442059178E-15, 30.00000000000000000 ) ) ;
#233 = PRODUCT ( '978772', '978772', '', ( #19 ) ) ;
#234 = DIRECTION ( 'NONE',  ( 0.0000000000000000000, 1.000000000000000000, 0.0000000000000000000 ) ) ;
#235 = AXIS2_PLACEMENT_3D ( 'NONE', #99, #242, #58 ) ;
#236 = DIRECTION ( 'NONE',  ( 3.491481338843133355E-15, -1.224646799147353207E-16, 1.000000000000000000 ) ) ;
#237 = PERSON_AND_ORGANIZATION ( #12, #147 ) ;
#238 = FACE_OUTER_BOUND ( 'NONE', #89, .T. ) ;
#239 = DIRECTION ( 'NONE',  ( -4.275831445896958607E-31, -1.000000000000000000, -1.224646799147353207E-16 ) ) ;
#240 = AXIS2_PLACEMENT_3D ( 'NONE', #53, #187, #54 ) ;
#241 = AXIS2_PLACEMENT_3D ( 'NONE', #292, #291, #77 ) ;
#242 = DIRECTION ( 'NONE',  ( -3.491481338843133355E-15, 1.224646799147353207E-16, -1.000000000000000000 ) ) ;
#243 = CARTESIAN_POINT ( 'NONE',  ( 1.955229549752154679E-14, -6.858022075225177566E-16, 5.599999999999999645 ) ) ;
#244 = PERSON_AND_ORGANIZATION ( #12, #147 ) ;
#245 = AXIS2_PLACEMENT_3D ( 'NONE', #111, #72, #289 ) ;
#246 = DATE_AND_TIME ( #297, #118 ) ;
#247 = EDGE_LOOP ( 'NONE', ( #135 ) ) ;
#248 = VERTEX_POINT ( 'NONE', #62 ) ;
#249 = CC_DESIGN_PERSON_AND_ORGANIZATION_ASSIGNMENT ( #264, #144, ( #189 ) ) ;
#250 = CARTESIAN_POINT ( 'NONE',  ( 0.0000000000000000000, 0.0000000000000000000, 0.0000000000000000000 ) ) ;
#251 = EDGE_LOOP ( 'NONE', ( #107 ) ) ;
#252 = VERTEX_POINT ( 'NONE', #82 ) ;
#253 = AXIS2_PLACEMENT_3D ( 'NONE', #114, #73, #1 ) ;
#254 = CC_DESIGN_DATE_AND_TIME_ASSIGNMENT ( #95, #71, ( #198 ) ) ;
#255 = SECURITY_CLASSIFICATION_LEVEL ( 'unclassified' ) ;
#256 = DIRECTION ( 'NONE',  ( -4.275831445896958607E-31, -1.000000000000000000, -1.224646799147353207E-16 ) ) ;
#257 = CYLINDRICAL_SURFACE ( 'NONE', #286, 0.6079999999999997629 ) ;
#258 = FACE_OUTER_BOUND ( 'NONE', #48, .T. ) ;
#259 = CIRCLE ( 'NONE', #203, 0.6079999999999998739 ) ;
#260 = LOCAL_TIME ( 11, 35, 12.00000000000000000, #35 ) ;
#261 = ORIENTED_EDGE ( 'NONE', *, *, #57, .T. ) ;
#262 = CC_DESIGN_DATE_AND_TIME_ASSIGNMENT ( #110, #204, ( #109 ) ) ;
#263 = CARTESIAN_POINT ( 'NONE',  ( 0.0000000000000000000, 0.0000000000000000000, 0.0000000000000000000 ) ) ;
#264 = PERSON_AND_ORGANIZATION ( #12, #147 ) ;
#265 = DIRECTION ( 'NONE',  ( 4.391088800077773202E-31, 1.000000000000000000, 1.224646799147353207E-16 ) ) ;
#266 = CC_DESIGN_APPROVAL ( #285, ( #109 ) ) ;
#267 = EDGE_CURVE ( 'NONE', #177, #177, #92, .T. ) ;
#268 = DIRECTION ( 'NONE',  ( -3.491481338843133355E-15, 1.224646799147353207E-16, -1.000000000000000000 ) ) ;
#269 = APPLICATION_CONTEXT ( 'configuration controlled 3d designs of mechanical parts and assemblies' ) ;
#270 = CARTESIAN_POINT ( 'NONE',  ( 1.675911042644703695E-14, -5.878304635907294211E-16, 4.799999999999999822 ) ) ;
#271 = DIRECTION ( 'NONE',  ( 0.0000000000000000000, 1.000000000000000000, 0.0000000000000000000 ) ) ;
#272 = ADVANCED_FACE ( 'NONE', ( #124, #34 ), #96, .T. ) ;
#273 =( LENGTH_UNIT ( ) NAMED_UNIT ( * ) SI_UNIT ( .MILLI., .METRE. ) );
#274 = ORIENTED_EDGE ( 'NONE', *, *, #10, .T. ) ;
#275 = CONICAL_SURFACE ( 'NONE', #178, 0.7499999999999971134, 0.2617993877991426355 ) ;
#276 =( NAMED_UNIT ( * ) PLANE_ANGLE_UNIT ( ) SI_UNIT ( $, .RADIAN. ) );
#277 = VERTEX_POINT ( 'NONE', #85 ) ;
#278 = CARTESIAN_POINT ( 'NONE',  ( 2.135961922974680159E-14, 0.6761483474218592526, 6.117638090205027801 ) ) ;
#279 = EDGE_LOOP ( 'NONE', ( #190 ) ) ;
#280 = ADVANCED_FACE ( 'NONE', ( #11 ), #169, .F. ) ;
#281 = PERSON_AND_ORGANIZATION_ROLE ( 'classification_officer' ) ;
#282 = APPROVAL_PERSON_ORGANIZATION ( #237, #195, #87 ) ;
#283 = ORIENTED_EDGE ( 'NONE', *, *, #162, .F. ) ;
#284 = EDGE_LOOP ( 'NONE', ( #283 ) ) ;
#285 = APPROVAL ( #80, 'UNSPECIFIED' ) ;
#286 = AXIS2_PLACEMENT_3D ( 'NONE', #263, #25, #119 ) ;
#287 = ORIENTED_EDGE ( 'NONE', *, *, #69, .T. ) ;
#288 = DIRECTION ( 'NONE',  ( -3.491481338843133355E-15, 1.224646799147353207E-16, -1.000000000000000000 ) ) ;
#289 = DIRECTION ( 'NONE',  ( 0.0000000000000000000, 1.000000000000000000, 0.0000000000000000000 ) ) ;
#290 = COORDINATED_UNIVERSAL_TIME_OFFSET ( 1, 0, .AHEAD. ) ;
#291 = DIRECTION ( 'NONE',  ( -3.491481338843133355E-15, 1.224646799147353207E-16, -1.000000000000000000 ) ) ;
#292 = CARTESIAN_POINT ( 'NONE',  ( 0.0000000000000000000, 0.0000000000000000000, 0.0000000000000000000 ) ) ;
#293 = DIRECTION ( 'NONE',  ( 6.335295869694859896E-31, 1.000000000000000000, 1.783227257377475838E-16 ) ) ;
#294 = CARTESIAN_POINT ( 'NONE',  ( 2.094888803305879224E-15, -7.347880794884117764E-17, 0.5999999999999998668 ) ) ;
#295 = AXIS2_PLACEMENT_3D ( 'NONE', #122, #214, #239 ) ;
#296 = CARTESIAN_POINT ( 'NONE',  ( 2.135961922974680159E-14, -7.491945905511513914E-16, 6.117638090205027801 ) ) ;
#297 = CALENDAR_DATE ( 2021, 17, 12 ) ;
#298 = CARTESIAN_POINT ( 'NONE',  ( 1.955229549752154679E-14, 0.6079999999999994298, 5.599999999999999645 ) ) ;
#299 = DATE_AND_TIME ( #150, #18 ) ;
#300 = EDGE_LOOP ( 'NONE', ( #191 ) ) ;
#301 = PERSON_AND_ORGANIZATION ( #12, #147 ) ;
#302 = CONICAL_SURFACE ( 'NONE', #112, 0.5218841563818269469, 1.047197551196592524 ) ;
#303 = ORIENTED_EDGE ( 'NONE', *, *, #267, .T. ) ;
ENDSEC;
END-ISO-10303-21;
