ISO-10303-21;
HEADER;
FILE_DESCRIPTION (( 'STEP AP203' ),
    '1' );
FILE_NAME ('978563.step',
    '2021-10-13T11:36:42',
    ( '' ),
    ( '' ),
    'SwSTEP 2.0',
    'SolidWorks 2019',
    '' );
FILE_SCHEMA (( 'CONFIG_CONTROL_DESIGN' ));
ENDSEC;

DATA;
#1 = FACE_OUTER_BOUND ( 'NONE', #166, .T. ) ;
#2 = DIRECTION ( 'NONE',  ( 3.491481338843133355E-15, -4.327174794786742882E-16, 1.000000000000000000 ) ) ;
#3 = DIRECTION ( 'NONE',  ( -3.491481338843133355E-15, 1.224646799147352714E-16, -1.000000000000000000 ) ) ;
#4 = AXIS2_PLACEMENT_3D ( 'NONE', #218, #226, #115 ) ;
#5 = CARTESIAN_POINT ( 'NONE',  ( 3.526396152231565067E-13, 5.999999999999994671, 101.0000000000000000 ) ) ;
#6 = DIRECTION ( 'NONE',  ( -3.491481338843133355E-15, 1.224646799147352714E-16, -1.000000000000000000 ) ) ;
#7 = EDGE_LOOP ( 'NONE', ( #204 ) ) ;
#8 = CC_DESIGN_APPROVAL ( #142, ( #13 ) ) ;
#9 = ORIENTED_EDGE ( 'NONE', *, *, #210, .F. ) ;
#10 = SECURITY_CLASSIFICATION_LEVEL ( 'unclassified' ) ;
#11 = EDGE_CURVE ( 'NONE', #32, #32, #163, .T. ) ;
#12 = LOCAL_TIME ( 13, 36, 42.00000000000000000, #110 ) ;
#13 = PRODUCT_DEFINITION ( 'UNKNOWN', '', #150, #98 ) ;
#14 = DIRECTION ( 'NONE',  ( 0.0000000000000000000, 1.000000000000000000, 0.0000000000000000000 ) ) ;
#15 = PERSON_AND_ORGANIZATION_ROLE ( 'creator' ) ;
#16 = DIRECTION ( 'NONE',  ( 3.491481338843133355E-15, -4.327174794786742882E-16, 1.000000000000000000 ) ) ;
#17 = DIRECTION ( 'NONE',  ( -3.491481338843133355E-15, 1.224646799147352714E-16, -1.000000000000000000 ) ) ;
#18 = CARTESIAN_POINT ( 'NONE',  ( 1.917291024827444831E-13, -6.000000000000026645, 54.91339745962152108 ) ) ;
#19 = ADVANCED_FACE ( 'NONE', ( #90 ), #216, .F. ) ;
#20 = ORIENTED_EDGE ( 'NONE', *, *, #210, .T. ) ;
#21 = DIRECTION ( 'NONE',  ( -4.275831445896956855E-31, -1.000000000000000000, -1.224646799147352714E-16 ) ) ;
#22 = ORIENTED_EDGE ( 'NONE', *, *, #43, .F. ) ;
#23 = ORIENTED_EDGE ( 'NONE', *, *, #128, .T. ) ;
#24 = DATE_AND_TIME ( #262, #68 ) ;
#25 = APPROVAL ( #129, 'UNSPECIFIED' ) ;
#26 = ORIENTED_EDGE ( 'NONE', *, *, #11, .F. ) ;
#27 = FACE_BOUND ( 'NONE', #162, .T. ) ;
#28 = APPLICATION_CONTEXT ( 'configuration controlled 3d designs of mechanical parts and assemblies' ) ;
#29 = FACE_OUTER_BOUND ( 'NONE', #7, .T. ) ;
#30 = CARTESIAN_POINT ( 'NONE',  ( 1.850485109586860552E-13, -2.293402641236973727E-14, 53.00000000000000000 ) ) ;
#31 = CARTESIAN_POINT ( 'NONE',  ( 7.624771685008945621E-15, -2.674409894274133310E-16, 2.183821405597240695 ) ) ;
#32 = VERTEX_POINT ( 'NONE', #18 ) ;
#33 = PERSON_AND_ORGANIZATION ( #89, #211 ) ;
#34 = AXIS2_PLACEMENT_3D ( 'NONE', #247, #16, #245 ) ;
#35 = AXIS2_PLACEMENT_3D ( 'NONE', #176, #79, #36 ) ;
#36 = DIRECTION ( 'NONE',  ( 0.0000000000000000000, -1.000000000000000000, 0.0000000000000000000 ) ) ;
#37 = CARTESIAN_POINT ( 'NONE',  ( 1.396592535537253342E-13, 4.499279347985561876E-32, 40.00000000000000000 ) ) ;
#38 = AXIS2_PLACEMENT_3D ( 'NONE', #132, #92, #215 ) ;
#39 = EDGE_LOOP ( 'NONE', ( #120 ) ) ;
#40 = EDGE_LOOP ( 'NONE', ( #74 ) ) ;
#41 = AXIS2_PLACEMENT_3D ( 'NONE', #251, #221, #160 ) ;
#42 = PERSON_AND_ORGANIZATION ( #89, #211 ) ;
#43 = EDGE_CURVE ( 'NONE', #95, #95, #183, .T. ) ;
#44 = PERSON_AND_ORGANIZATION ( #89, #211 ) ;
#45 = APPROVAL_DATE_TIME ( #171, #142 ) ;
#46 = CLOSED_SHELL ( 'NONE', ( #53, #80, #152 ) ) ;
#47 = LOCAL_TIME ( 13, 36, 42.00000000000000000, #261 ) ;
#48 = DATE_AND_TIME ( #259, #187 ) ;
#49 = CARTESIAN_POINT ( 'NONE',  ( 1.396592535537253342E-13, -5.050000000000025580, 40.00000000000000000 ) ) ;
#50 = PERSON_AND_ORGANIZATION ( #89, #211 ) ;
#51 = ADVANCED_FACE ( 'NONE', ( #207, #189 ), #208, .T. ) ;
#52 = ADVANCED_FACE ( 'NONE', ( #29 ), #99, .F. ) ;
#53 = ADVANCED_FACE ( 'NONE', ( #205 ), #203, .T. ) ;
#54 = CARTESIAN_POINT ( 'NONE',  ( 1.396592535537253342E-13, -1.730869917914697153E-14, 40.00000000000000000 ) ) ;
#55 = CIRCLE ( 'NONE', #35, 5.050000000000008704 ) ;
#56 = DIRECTION ( 'NONE',  ( -3.491481338843133355E-15, 4.327174794786742882E-16, -1.000000000000000000 ) ) ;
#57 = UNCERTAINTY_MEASURE_WITH_UNIT (LENGTH_MEASURE( 1.000000000000000082E-05 ), #198, 'distance_accuracy_value', 'NONE');
#58 = AXIS2_PLACEMENT_3D ( 'NONE', #61, #143, #107 ) ;
#59 = ORIENTED_EDGE ( 'NONE', *, *, #130, .T. ) ;
#60 = ORIENTED_EDGE ( 'NONE', *, *, #146, .T. ) ;
#61 = CARTESIAN_POINT ( 'NONE',  ( 0.0000000000000000000, 0.0000000000000000000, 0.0000000000000000000 ) ) ;
#62 = AXIS2_PLACEMENT_3D ( 'NONE', #103, #6, #258 ) ;
#63 =( GEOMETRIC_REPRESENTATION_CONTEXT ( 3 ) GLOBAL_UNCERTAINTY_ASSIGNED_CONTEXT ( ( #57 ) ) GLOBAL_UNIT_ASSIGNED_CONTEXT ( ( #198, #248, #241 ) ) REPRESENTATION_CONTEXT ( 'NONE', 'WORKASPACE' ) );
#64 = CALENDAR_DATE ( 2021, 13, 10 ) ;
#65 = APPROVAL_ROLE ( '' ) ;
#66 = EDGE_LOOP ( 'NONE', ( #234 ) ) ;
#67 = CONICAL_SURFACE ( 'NONE', #263, 6.500000000000024869, 0.5235987755983014802 ) ;
#68 = LOCAL_TIME ( 13, 36, 42.00000000000000000, #169 ) ;
#69 = CARTESIAN_POINT ( 'NONE',  ( 1.850485109586860552E-13, 5.049999999999994493, 53.00000000000000000 ) ) ;
#70 = MANIFOLD_SOLID_BREP ( 'Corps-Déplacer/Copier1[2]', #46 ) ;
#71 = FACE_OUTER_BOUND ( 'NONE', #188, .T. ) ;
#72 = ADVANCED_FACE ( 'NONE', ( #151, #27 ), #85, .T. ) ;
#73 = APPLICATION_PROTOCOL_DEFINITION ( 'international standard', 'config_control_design', 1994, #125 ) ;
#74 = ORIENTED_EDGE ( 'NONE', *, *, #11, .T. ) ;
#75 = CC_DESIGN_DATE_AND_TIME_ASSIGNMENT ( #145, #236, ( #97 ) ) ;
#76 = MECHANICAL_CONTEXT ( 'NONE', #28, 'mechanical' ) ;
#77 = AXIS2_PLACEMENT_3D ( 'NONE', #54, #134, #220 ) ;
#78 = VERTEX_POINT ( 'NONE', #96 ) ;
#79 = DIRECTION ( 'NONE',  ( -3.491481338843133355E-15, 1.224646799147352714E-16, -1.000000000000000000 ) ) ;
#80 = ADVANCED_FACE ( 'NONE', ( #242, #175 ), #249, .T. ) ;
#81 = ORIENTED_EDGE ( 'NONE', *, *, #229, .T. ) ;
#82 = EDGE_LOOP ( 'NONE', ( #105 ) ) ;
#83 = EDGE_LOOP ( 'NONE', ( #165 ) ) ;
#84 = PERSON_AND_ORGANIZATION ( #89, #211 ) ;
#85 = CONICAL_SURFACE ( 'NONE', #225, 5.000000000000007105, 0.7853981633974479459 ) ;
#86 = APPROVAL_ROLE ( '' ) ;
#87 = DIRECTION ( 'NONE',  ( -3.491481338843133355E-15, 1.224646799147352714E-16, -1.000000000000000000 ) ) ;
#88 = CALENDAR_DATE ( 2021, 13, 10 ) ;
#89 = PERSON ( 'UNSPECIFIED', 'UNSPECIFIED', 'UNSPECIFIED', ('UNSPECIFIED'), ('UNSPECIFIED'), ('UNSPECIFIED') ) ;
#90 = FACE_OUTER_BOUND ( 'NONE', #82, .T. ) ;
#91 = CARTESIAN_POINT ( 'NONE',  ( 0.0000000000000000000, 0.0000000000000000000, 0.0000000000000000000 ) ) ;
#92 = DIRECTION ( 'NONE',  ( -3.491481338843133355E-15, 4.327174794786742882E-16, -1.000000000000000000 ) ) ;
#93 = FACE_OUTER_BOUND ( 'NONE', #123, .T. ) ;
#94 = DIRECTION ( 'NONE',  ( -5.135813185032633904E-31, -1.000000000000000000, -1.445602896647340642E-16 ) ) ;
#95 = VERTEX_POINT ( 'NONE', #5 ) ;
#96 = CARTESIAN_POINT ( 'NONE',  ( 1.396592535537253342E-13, -5.050000000000025580, 40.00000000000000000 ) ) ;
#97 = SECURITY_CLASSIFICATION ( '', '', #10 ) ;
#98 = DESIGN_CONTEXT ( 'detailed design', #125, 'design' ) ;
#99 = PLANE ( 'NONE',  #158 ) ;
#100 = ADVANCED_FACE ( 'NONE', ( #111, #1 ), #67, .T. ) ;
#101 = AXIS2_PLACEMENT_3D ( 'NONE', #91, #116, #222 ) ;
#102 = EDGE_LOOP ( 'NONE', ( #60 ) ) ;
#103 = CARTESIAN_POINT ( 'NONE',  ( 3.526396152231565067E-13, -1.236893267138826259E-14, 101.0000000000000000 ) ) ;
#104 = EDGE_CURVE ( 'NONE', #78, #78, #191, .T. ) ;
#105 = ORIENTED_EDGE ( 'NONE', *, *, #104, .T. ) ;
#106 = DIRECTION ( 'NONE',  ( -3.491481338843133355E-15, 1.224646799147352714E-16, -1.000000000000000000 ) ) ;
#107 = DIRECTION ( 'NONE',  ( 1.510825004591027855E-30, 1.000000000000000000, 4.327174794786742389E-16 ) ) ;
#108 = PERSON_AND_ORGANIZATION ( #89, #211 ) ;
#109 = CC_DESIGN_DATE_AND_TIME_ASSIGNMENT ( #24, #235, ( #13 ) ) ;
#110 = COORDINATED_UNIVERSAL_TIME_OFFSET ( 1, 0, .AHEAD. ) ;
#111 = FACE_BOUND ( 'NONE', #83, .T. ) ;
#112 = APPROVAL_PERSON_ORGANIZATION ( #243, #213, #65 ) ;
#113 = DIRECTION ( 'NONE',  ( -4.576467194583522762E-31, -1.000000000000000000, -1.288160997012478270E-16 ) ) ;
#114 = VERTEX_POINT ( 'NONE', #69 ) ;
#115 = DIRECTION ( 'NONE',  ( 0.0000000000000000000, 1.000000000000000000, 0.0000000000000000000 ) ) ;
#116 = DIRECTION ( 'NONE',  ( 0.0000000000000000000, 0.0000000000000000000, 1.000000000000000000 ) ) ;
#117 = DIRECTION ( 'NONE',  ( 3.491481338843133355E-15, -1.224646799147352714E-16, 1.000000000000000000 ) ) ;
#118 = CLOSED_SHELL ( 'NONE', ( #252, #72, #52, #51, #100, #136, #19 ) ) ;
#119 = CARTESIAN_POINT ( 'NONE',  ( 3.561310965619996275E-13, -1.249139735130299773E-14, 102.0000000000000142 ) ) ;
#120 = ORIENTED_EDGE ( 'NONE', *, *, #146, .F. ) ;
#121 = CC_DESIGN_PERSON_AND_ORGANIZATION_ASSIGNMENT ( #50, #190, ( #150 ) ) ;
#122 = SHAPE_DEFINITION_REPRESENTATION ( #254, #228 ) ;
#123 = EDGE_LOOP ( 'NONE', ( #139 ) ) ;
#124 = DIRECTION ( 'NONE',  ( 3.491481338843133355E-15, -1.224646799147352714E-16, 1.000000000000000000 ) ) ;
#125 = APPLICATION_CONTEXT ( 'configuration controlled 3d designs of mechanical parts and assemblies' ) ;
#126 = CIRCLE ( 'NONE', #4, 5.183974596215577435 ) ;
#127 = CIRCLE ( 'NONE', #174, 5.050000000000017586 ) ;
#128 = EDGE_CURVE ( 'NONE', #184, #184, #149, .T. ) ;
#129 = APPROVAL_STATUS ( 'not_yet_approved' ) ;
#130 = EDGE_CURVE ( 'NONE', #155, #155, #126, .T. ) ;
#131 = CC_DESIGN_SECURITY_CLASSIFICATION ( #97, ( #150 ) ) ;
#132 = CARTESIAN_POINT ( 'NONE',  ( 0.0000000000000000000, 0.0000000000000000000, 0.0000000000000000000 ) ) ;
#133 = CARTESIAN_POINT ( 'NONE',  ( 1.947528140190220379E-13, -2.413673126822817602E-14, 55.77942286340599765 ) ) ;
#134 = DIRECTION ( 'NONE',  ( -3.491481338843133355E-15, 1.224646799147352714E-16, -1.000000000000000000 ) ) ;
#135 = DIRECTION ( 'NONE',  ( 0.0000000000000000000, 1.000000000000000000, 0.0000000000000000000 ) ) ;
#136 = ADVANCED_FACE ( 'NONE', ( #71, #244 ), #140, .F. ) ;
#137 = COORDINATED_UNIVERSAL_TIME_OFFSET ( 1, 0, .AHEAD. ) ;
#138 = AXIS2_PLACEMENT_3D ( 'NONE', #193, #87, #113 ) ;
#139 = ORIENTED_EDGE ( 'NONE', *, *, #43, .T. ) ;
#140 = TOROIDAL_SURFACE ( 'NONE', #181, 6.050000000000015810, 0.9999999999999995559 ) ;
#141 = EDGE_LOOP ( 'NONE', ( #23 ) ) ;
#142 = APPROVAL ( #144, 'UNSPECIFIED' ) ;
#143 = DIRECTION ( 'NONE',  ( -3.491481338843133355E-15, 4.327174794786742882E-16, -1.000000000000000000 ) ) ;
#144 = APPROVAL_STATUS ( 'not_yet_approved' ) ;
#145 = DATE_AND_TIME ( #64, #47 ) ;
#146 = EDGE_CURVE ( 'NONE', #217, #217, #55, .T. ) ;
#147 = APPLICATION_PROTOCOL_DEFINITION ( 'international standard', 'config_control_design', 1994, #28 ) ;
#148 = COORDINATED_UNIVERSAL_TIME_OFFSET ( 1, 0, .AHEAD. ) ;
#149 = CIRCLE ( 'NONE', #138, 5.050000000000008704 ) ;
#150 = PRODUCT_DEFINITION_FORMATION_WITH_SPECIFIED_SOURCE ( 'ANY', '', #161, .NOT_KNOWN. ) ;
#151 = FACE_OUTER_BOUND ( 'NONE', #194, .T. ) ;
#152 = ADVANCED_FACE ( 'NONE', ( #223 ), #246, .T. ) ;
#153 = VERTEX_POINT ( 'NONE', #212 ) ;
#154 = CARTESIAN_POINT ( 'NONE',  ( 1.850485109586860552E-13, -2.255140518769849223E-14, 53.00000000000000000 ) ) ;
#155 = VERTEX_POINT ( 'NONE', #237 ) ;
#156 = DIRECTION ( 'NONE',  ( 0.0000000000000000000, -1.000000000000000000, 0.0000000000000000000 ) ) ;
#157 = DIRECTION ( 'NONE',  ( 4.275831445896956855E-31, 1.000000000000000000, 1.224646799147352714E-16 ) ) ;
#158 = AXIS2_PLACEMENT_3D ( 'NONE', #256, #106, #186 ) ;
#159 = CARTESIAN_POINT ( 'NONE',  ( 3.561310965619996275E-13, -1.249139735130299773E-14, 102.0000000000000142 ) ) ;
#160 = DIRECTION ( 'NONE',  ( -4.275831445896956855E-31, -1.000000000000000000, -1.224646799147352714E-16 ) ) ;
#161 = PRODUCT ( '978563', '978563', '', ( #76 ) ) ;
#162 = EDGE_LOOP ( 'NONE', ( #81 ) ) ;
#163 = CIRCLE ( 'NONE', #34, 6.000000000000003553 ) ;
#164 = CC_DESIGN_APPROVAL ( #213, ( #150 ) ) ;
#165 = ORIENTED_EDGE ( 'NONE', *, *, #130, .F. ) ;
#166 = EDGE_LOOP ( 'NONE', ( #26 ) ) ;
#167 = PERSON_AND_ORGANIZATION_ROLE ( 'classification_officer' ) ;
#168 = CC_DESIGN_PERSON_AND_ORGANIZATION_ASSIGNMENT ( #108, #173, ( #150 ) ) ;
#169 = COORDINATED_UNIVERSAL_TIME_OFFSET ( 1, 0, .AHEAD. ) ;
#170 = APPROVAL_DATE_TIME ( #185, #25 ) ;
#171 = DATE_AND_TIME ( #88, #12 ) ;
#172 = EDGE_LOOP ( 'NONE', ( #197 ) ) ;
#173 = PERSON_AND_ORGANIZATION_ROLE ( 'creator' ) ;
#174 = AXIS2_PLACEMENT_3D ( 'NONE', #30, #56, #199 ) ;
#175 = FACE_OUTER_BOUND ( 'NONE', #172, .T. ) ;
#176 = CARTESIAN_POINT ( 'NONE',  ( 1.396592535537253342E-13, -1.730869917914697153E-14, 40.00000000000000000 ) ) ;
#177 = PERSON_AND_ORGANIZATION_ROLE ( 'design_owner' ) ;
#178 = CARTESIAN_POINT ( 'NONE',  ( 0.0000000000000000000, 0.0000000000000000000, 0.0000000000000000000 ) ) ;
#179 = CC_DESIGN_PERSON_AND_ORGANIZATION_ASSIGNMENT ( #33, #177, ( #161 ) ) ;
#180 = DIRECTION ( 'NONE',  ( -3.491481338843133355E-15, 4.327174794786742882E-16, -1.000000000000000000 ) ) ;
#181 = AXIS2_PLACEMENT_3D ( 'NONE', #154, #180, #250 ) ;
#182 = APPROVAL_PERSON_ORGANIZATION ( #240, #142, #86 ) ;
#183 = CIRCLE ( 'NONE', #62, 6.000000000000007105 ) ;
#184 = VERTEX_POINT ( 'NONE', #214 ) ;
#185 = DATE_AND_TIME ( #224, #260 ) ;
#186 = DIRECTION ( 'NONE',  ( 4.275831445896956855E-31, 1.000000000000000000, 1.224646799147352714E-16 ) ) ;
#187 = LOCAL_TIME ( 13, 36, 42.00000000000000000, #148 ) ;
#188 = EDGE_LOOP ( 'NONE', ( #9 ) ) ;
#189 = FACE_OUTER_BOUND ( 'NONE', #66, .T. ) ;
#190 = PERSON_AND_ORGANIZATION_ROLE ( 'design_supplier' ) ;
#191 = CIRCLE ( 'NONE', #77, 5.050000000000008704 ) ;
#192 = APPROVAL_STATUS ( 'not_yet_approved' ) ;
#193 = CARTESIAN_POINT ( 'NONE',  ( 6.417516168215879932E-15, -2.250961661014068066E-16, 1.838049683044348681 ) ) ;
#194 = EDGE_LOOP ( 'NONE', ( #22 ) ) ;
#195 = DIRECTION ( 'NONE',  ( -3.491481338843133355E-15, 1.224646799147352714E-16, -1.000000000000000000 ) ) ;
#196 = APPROVAL_DATE_TIME ( #48, #213 ) ;
#197 = ORIENTED_EDGE ( 'NONE', *, *, #128, .F. ) ;
#198 =( LENGTH_UNIT ( ) NAMED_UNIT ( * ) SI_UNIT ( .MILLI., .METRE. ) );
#199 = DIRECTION ( 'NONE',  ( 0.0000000000000000000, 1.000000000000000000, 0.0000000000000000000 ) ) ;
#200 = CYLINDRICAL_SURFACE ( 'NONE', #239, 6.000000000000003553 ) ;
#201 = CIRCLE ( 'NONE', #232, 5.000000000000007105 ) ;
#202 = FACE_OUTER_BOUND ( 'NONE', #40, .T. ) ;
#203 = CONICAL_SURFACE ( 'NONE', #231, 5.999999999999994671, 1.221730476396026610 ) ;
#204 = ORIENTED_EDGE ( 'NONE', *, *, #229, .F. ) ;
#205 = FACE_OUTER_BOUND ( 'NONE', #141, .T. ) ;
#206 = EDGE_LOOP ( 'NONE', ( #20 ) ) ;
#207 = FACE_OUTER_BOUND ( 'NONE', #206, .T. ) ;
#208 = CYLINDRICAL_SURFACE ( 'NONE', #58, 5.050000000000008704 ) ;
#209 = APPROVAL_ROLE ( '' ) ;
#210 = EDGE_CURVE ( 'NONE', #114, #114, #127, .T. ) ;
#211 = ORGANIZATION ( 'UNSPECIFIED', 'UNSPECIFIED', '' ) ;
#212 = CARTESIAN_POINT ( 'NONE',  ( 3.561310965619996275E-13, 4.999999999999994671, 102.0000000000000142 ) ) ;
#213 = APPROVAL ( #192, 'UNSPECIFIED' ) ;
#214 = CARTESIAN_POINT ( 'NONE',  ( 6.417516168215877566E-15, -5.050000000000008704, 1.838049683044348015 ) ) ;
#215 = DIRECTION ( 'NONE',  ( 1.510825004591027855E-30, 1.000000000000000000, 4.327174794786742389E-16 ) ) ;
#216 = PLANE ( 'NONE',  #238 ) ;
#217 = VERTEX_POINT ( 'NONE', #49 ) ;
#218 = CARTESIAN_POINT ( 'NONE',  ( 1.867942516281076408E-13, -2.315038515210907284E-14, 53.50000000000000000 ) ) ;
#219 = CC_DESIGN_PERSON_AND_ORGANIZATION_ASSIGNMENT ( #42, #15, ( #13 ) ) ;
#220 = DIRECTION ( 'NONE',  ( 0.0000000000000000000, -1.000000000000000000, 0.0000000000000000000 ) ) ;
#221 = DIRECTION ( 'NONE',  ( 3.491481338843133355E-15, -1.224646799147352714E-16, 1.000000000000000000 ) ) ;
#222 = DIRECTION ( 'NONE',  ( 1.000000000000000000, 0.0000000000000000000, 0.0000000000000000000 ) ) ;
#223 = FACE_OUTER_BOUND ( 'NONE', #39, .T. ) ;
#224 = CALENDAR_DATE ( 2021, 13, 10 ) ;
#225 = AXIS2_PLACEMENT_3D ( 'NONE', #159, #195, #14 ) ;
#226 = DIRECTION ( 'NONE',  ( -3.491481338843133355E-15, 4.327174794786742882E-16, -1.000000000000000000 ) ) ;
#227 = APPROVAL_PERSON_ORGANIZATION ( #44, #25, #209 ) ;
#228 = ADVANCED_BREP_SHAPE_REPRESENTATION ( '978563', ( #255, #70, #101 ), #63 ) ;
#229 = EDGE_CURVE ( 'NONE', #153, #153, #201, .T. ) ;
#230 = EDGE_LOOP ( 'NONE', ( #59 ) ) ;
#231 = AXIS2_PLACEMENT_3D ( 'NONE', #31, #117, #94 ) ;
#232 = AXIS2_PLACEMENT_3D ( 'NONE', #119, #17, #135 ) ;
#233 = CC_DESIGN_PERSON_AND_ORGANIZATION_ASSIGNMENT ( #84, #167, ( #97 ) ) ;
#234 = ORIENTED_EDGE ( 'NONE', *, *, #104, .F. ) ;
#235 = DATE_TIME_ROLE ( 'creation_date' ) ;
#236 = DATE_TIME_ROLE ( 'classification_date' ) ;
#237 = CARTESIAN_POINT ( 'NONE',  ( 1.867942516281076408E-13, 5.183974596215554342, 53.50000000000000000 ) ) ;
#238 = AXIS2_PLACEMENT_3D ( 'NONE', #37, #124, #21 ) ;
#239 = AXIS2_PLACEMENT_3D ( 'NONE', #178, #3, #157 ) ;
#240 = PERSON_AND_ORGANIZATION ( #89, #211 ) ;
#241 =( NAMED_UNIT ( * ) SI_UNIT ( $, .STERADIAN. ) SOLID_ANGLE_UNIT ( ) );
#242 = FACE_OUTER_BOUND ( 'NONE', #102, .T. ) ;
#243 = PERSON_AND_ORGANIZATION ( #89, #211 ) ;
#244 = FACE_OUTER_BOUND ( 'NONE', #230, .T. ) ;
#245 = DIRECTION ( 'NONE',  ( 0.0000000000000000000, -1.000000000000000000, 0.0000000000000000000 ) ) ;
#246 = PLANE ( 'NONE',  #41 ) ;
#247 = CARTESIAN_POINT ( 'NONE',  ( 1.917291024827444831E-13, -2.376198693833805935E-14, 54.91339745962152108 ) ) ;
#248 =( NAMED_UNIT ( * ) PLANE_ANGLE_UNIT ( ) SI_UNIT ( $, .RADIAN. ) );
#249 = CYLINDRICAL_SURFACE ( 'NONE', #38, 5.050000000000008704 ) ;
#250 = DIRECTION ( 'NONE',  ( 1.510825004591027679E-30, 1.000000000000000000, 4.327174794786742389E-16 ) ) ;
#251 = CARTESIAN_POINT ( 'NONE',  ( 1.396592535537253342E-13, 4.499279347985561876E-32, 40.00000000000000000 ) ) ;
#252 = ADVANCED_FACE ( 'NONE', ( #202, #93 ), #200, .T. ) ;
#253 = PRODUCT_RELATED_PRODUCT_CATEGORY ( 'detail', '', ( #161 ) ) ;
#254 = PRODUCT_DEFINITION_SHAPE ( 'NONE', 'NONE',  #13 ) ;
#255 = MANIFOLD_SOLID_BREP ( 'Corps-Déplacer/Copier1[1]', #118 ) ;
#256 = CARTESIAN_POINT ( 'NONE',  ( 3.561310965619996275E-13, 3.749399456654628693E-32, 102.0000000000000142 ) ) ;
#257 = CC_DESIGN_APPROVAL ( #25, ( #97 ) ) ;
#258 = DIRECTION ( 'NONE',  ( 0.0000000000000000000, 1.000000000000000000, 0.0000000000000000000 ) ) ;
#259 = CALENDAR_DATE ( 2021, 13, 10 ) ;
#260 = LOCAL_TIME ( 13, 36, 42.00000000000000000, #137 ) ;
#261 = COORDINATED_UNIVERSAL_TIME_OFFSET ( 1, 0, .AHEAD. ) ;
#262 = CALENDAR_DATE ( 2021, 13, 10 ) ;
#263 = AXIS2_PLACEMENT_3D ( 'NONE', #133, #2, #156 ) ;
ENDSEC;
END-ISO-10303-21;
