ISO-10303-21;
HEADER;
FILE_DESCRIPTION (( 'STEP AP203' ),
    '1' );
FILE_NAME ('978100.step',
    '2021-11-26T14:47:32',
    ( '' ),
    ( '' ),
    'SwSTEP 2.0',
    'SolidWorks 2019',
    '' );
FILE_SCHEMA (( 'CONFIG_CONTROL_DESIGN' ));
ENDSEC;

DATA;
#1 = ORIENTED_EDGE ( 'NONE', *, *, #237, .F. ) ;
#2 = EDGE_LOOP ( 'NONE', ( #218 ) ) ;
#3 = DIRECTION ( 'NONE',  ( -3.491481338843133355E-15, 1.224646799147352961E-16, -1.000000000000000000 ) ) ;
#4 = CC_DESIGN_DATE_AND_TIME_ASSIGNMENT ( #80, #163, ( #33 ) ) ;
#5 = CARTESIAN_POINT ( 'NONE',  ( 4.344354206815949631E-14, -1.523794331807116710E-15, 12.44272497889221540 ) ) ;
#6 = VERTEX_POINT ( 'NONE', #9 ) ;
#7 = CC_DESIGN_APPROVAL ( #205, ( #279 ) ) ;
#8 = CARTESIAN_POINT ( 'NONE',  ( 1.326762908760390423E-13, 1.199999999999998845, 38.00000000000000000 ) ) ;
#9 = CARTESIAN_POINT ( 'NONE',  ( 1.047444401652940007E-14, 0.2184999999999991671, 3.000000000000000000 ) ) ;
#10 = CARTESIAN_POINT ( 'NONE',  ( 4.344354206815949631E-14, 1.499999999999995559, 12.44272497889221540 ) ) ;
#11 = MECHANICAL_CONTEXT ( 'NONE', #68, 'mechanical' ) ;
#12 = AXIS2_PLACEMENT_3D ( 'NONE', #249, #32, #201 ) ;
#13 = CARTESIAN_POINT ( 'NONE',  ( 0.0000000000000000000, 0.0000000000000000000, 0.0000000000000000000 ) ) ;
#14 = COORDINATED_UNIVERSAL_TIME_OFFSET ( 1, 0, .AHEAD. ) ;
#15 = CALENDAR_DATE ( 2021, 26, 11 ) ;
#16 = ADVANCED_FACE ( 'NONE', ( #198 ), #25, .F. ) ;
#17 = CIRCLE ( 'NONE', #147, 1.200000000000003286 ) ;
#18 = AXIS2_PLACEMENT_3D ( 'NONE', #13, #77, #253 ) ;
#19 = AXIS2_PLACEMENT_3D ( 'NONE', #155, #260, #282 ) ;
#20 = APPROVAL_ROLE ( '' ) ;
#21 = CC_DESIGN_PERSON_AND_ORGANIZATION_ASSIGNMENT ( #40, #172, ( #85 ) ) ;
#22 = FACE_BOUND ( 'NONE', #277, .T. ) ;
#23 = LOCAL_TIME ( 15, 47, 32.00000000000000000, #62 ) ;
#24 = CARTESIAN_POINT ( 'NONE',  ( 1.326762908760390423E-13, 8.998558695971099120E-33, 38.00000000000000000 ) ) ;
#25 = PLANE ( 'NONE',  #134 ) ;
#26 = EDGE_LOOP ( 'NONE', ( #243 ) ) ;
#27 = ADVANCED_FACE ( 'NONE', ( #219, #22 ), #79, .T. ) ;
#28 = CARTESIAN_POINT ( 'NONE',  ( -3.437019636493392291E-32, 1.205544205438281288E-33, -9.844015484935152863E-18 ) ) ;
#29 = UNCERTAINTY_MEASURE_WITH_UNIT (LENGTH_MEASURE( 1.000000000000000082E-05 ), #76, 'distance_accuracy_value', 'NONE');
#30 = CARTESIAN_POINT ( 'NONE',  ( 3.491481338843132862E-16, -1.224646799147352653E-17, 0.09999999999999997780 ) ) ;
#31 = EDGE_CURVE ( 'NONE', #74, #74, #17, .T. ) ;
#32 = DIRECTION ( 'NONE',  ( -3.491481338843133355E-15, 1.224646799147352961E-16, -1.000000000000000000 ) ) ;
#33 = SECURITY_CLASSIFICATION ( '', '', #206 ) ;
#34 = CARTESIAN_POINT ( 'NONE',  ( 1.316288464743861212E-13, 1.499999999999998668, 37.69999999999999574 ) ) ;
#35 = VERTEX_POINT ( 'NONE', #182 ) ;
#36 = FACE_OUTER_BOUND ( 'NONE', #2, .T. ) ;
#37 = PERSON_AND_ORGANIZATION ( #266, #78 ) ;
#38 = CC_DESIGN_APPROVAL ( #149, ( #33 ) ) ;
#39 = AXIS2_PLACEMENT_3D ( 'NONE', #137, #83, #220 ) ;
#40 = PERSON_AND_ORGANIZATION ( #266, #78 ) ;
#41 = EDGE_LOOP ( 'NONE', ( #157 ) ) ;
#42 = PERSON_AND_ORGANIZATION ( #266, #78 ) ;
#43 = ORIENTED_EDGE ( 'NONE', *, *, #248, .T. ) ;
#44 = EDGE_LOOP ( 'NONE', ( #171 ) ) ;
#45 = ORIENTED_EDGE ( 'NONE', *, *, #281, .F. ) ;
#46 = AXIS2_PLACEMENT_3D ( 'NONE', #259, #151, #73 ) ;
#47 = CLOSED_SHELL ( 'NONE', ( #169, #70, #221, #227, #217, #27, #16 ) ) ;
#48 = ORIENTED_EDGE ( 'NONE', *, *, #179, .F. ) ;
#49 = PLANE ( 'NONE',  #178 ) ;
#50 = DIRECTION ( 'NONE',  ( -3.491481338843133355E-15, 1.224646799147352961E-16, -1.000000000000000000 ) ) ;
#51 = DIRECTION ( 'NONE',  ( -3.491481338843133355E-15, 1.224646799147352961E-16, -1.000000000000000000 ) ) ;
#52 = DIRECTION ( 'NONE',  ( 0.0000000000000000000, 1.000000000000000000, 0.0000000000000000000 ) ) ;
#53 = DIRECTION ( 'NONE',  ( 0.0000000000000000000, -1.000000000000000000, 0.0000000000000000000 ) ) ;
#54 = AXIS2_PLACEMENT_3D ( 'NONE', #30, #247, #92 ) ;
#55 = DIRECTION ( 'NONE',  ( 4.401730672651773318E-31, 1.000000000000000000, 1.224646799147352961E-16 ) ) ;
#56 = AXIS2_PLACEMENT_3D ( 'NONE', #111, #86, #177 ) ;
#57 = CARTESIAN_POINT ( 'NONE',  ( 1.047444401652940007E-14, 1.638487562558069638E-33, 3.000000000000000000 ) ) ;
#58 = COORDINATED_UNIVERSAL_TIME_OFFSET ( 1, 0, .AHEAD. ) ;
#59 = EDGE_LOOP ( 'NONE', ( #81 ) ) ;
#60 = AXIS2_PLACEMENT_3D ( 'NONE', #114, #89, #139 ) ;
#61 = ADVANCED_FACE ( 'NONE', ( #194, #235 ), #241, .T. ) ;
#62 = COORDINATED_UNIVERSAL_TIME_OFFSET ( 1, 0, .AHEAD. ) ;
#63 = DIRECTION ( 'NONE',  ( 0.0000000000000000000, 1.000000000000000000, 0.0000000000000000000 ) ) ;
#64 = FACE_OUTER_BOUND ( 'NONE', #273, .T. ) ;
#65 = CC_DESIGN_PERSON_AND_ORGANIZATION_ASSIGNMENT ( #37, #123, ( #279 ) ) ;
#66 = LOCAL_TIME ( 15, 47, 32.00000000000000000, #146 ) ;
#67 = ORIENTED_EDGE ( 'NONE', *, *, #152, .F. ) ;
#68 = APPLICATION_CONTEXT ( 'configuration controlled 3d designs of mechanical parts and assemblies' ) ;
#69 = CYLINDRICAL_SURFACE ( 'NONE', #254, 0.2184999999999993892 ) ;
#70 = ADVANCED_FACE ( 'NONE', ( #242, #113 ), #135, .T. ) ;
#71 = DIRECTION ( 'NONE',  ( -3.491481338843133355E-15, 1.224646799147352961E-16, -1.000000000000000000 ) ) ;
#72 = AXIS2_PLACEMENT_3D ( 'NONE', #5, #203, #91 ) ;
#73 = DIRECTION ( 'NONE',  ( 0.0000000000000000000, 1.000000000000000000, 0.0000000000000000000 ) ) ;
#74 = VERTEX_POINT ( 'NONE', #8 ) ;
#75 = PLANE ( 'NONE',  #142 ) ;
#76 =( LENGTH_UNIT ( ) NAMED_UNIT ( * ) SI_UNIT ( .MILLI., .METRE. ) );
#77 = DIRECTION ( 'NONE',  ( 0.0000000000000000000, 0.0000000000000000000, 1.000000000000000000 ) ) ;
#78 = ORGANIZATION ( 'UNSPECIFIED', 'UNSPECIFIED', '' ) ;
#79 = CONICAL_SURFACE ( 'NONE', #124, 1.200000000000003286, 0.7853981633974453924 ) ;
#80 = DATE_AND_TIME ( #15, #239 ) ;
#81 = ORIENTED_EDGE ( 'NONE', *, *, #108, .T. ) ;
#82 = DIRECTION ( 'NONE',  ( -3.491481338843133355E-15, 1.224646799147352961E-16, -1.000000000000000000 ) ) ;
#83 = DIRECTION ( 'NONE',  ( -3.491481338843133355E-15, 1.224646799147352961E-16, -1.000000000000000000 ) ) ;
#84 = ORIENTED_EDGE ( 'NONE', *, *, #281, .T. ) ;
#85 = PRODUCT_DEFINITION ( 'UNKNOWN', '', #279, #90 ) ;
#86 = DIRECTION ( 'NONE',  ( -3.491481338843133355E-15, 1.224646799147352961E-16, -1.000000000000000000 ) ) ;
#87 = CIRCLE ( 'NONE', #117, 1.500000000000003331 ) ;
#88 = ORIENTED_EDGE ( 'NONE', *, *, #31, .T. ) ;
#89 = DIRECTION ( 'NONE',  ( -3.491481338843133355E-15, 1.224646799147352961E-16, -1.000000000000000000 ) ) ;
#90 = DESIGN_CONTEXT ( 'detailed design', #283, 'design' ) ;
#91 = DIRECTION ( 'NONE',  ( 0.0000000000000000000, 1.000000000000000000, 0.0000000000000000000 ) ) ;
#92 = DIRECTION ( 'NONE',  ( 4.407162344135565220E-31, 1.000000000000000000, 1.240505918175638324E-16 ) ) ;
#93 = CARTESIAN_POINT ( 'NONE',  ( 1.047444401652940007E-14, 0.2184999999999991671, 3.000000000000000000 ) ) ;
#94 = PRODUCT_RELATED_PRODUCT_CATEGORY ( 'detail', '', ( #107 ) ) ;
#95 = FACE_BOUND ( 'NONE', #41, .T. ) ;
#96 =( GEOMETRIC_REPRESENTATION_CONTEXT ( 3 ) GLOBAL_UNCERTAINTY_ASSIGNED_CONTEXT ( ( #29 ) ) GLOBAL_UNIT_ASSIGNED_CONTEXT ( ( #76, #258, #190 ) ) REPRESENTATION_CONTEXT ( 'NONE', 'WORKASPACE' ) );
#97 = PERSON_AND_ORGANIZATION ( #266, #78 ) ;
#98 = MANIFOLD_SOLID_BREP ( 'Corps-Déplacer/Copier1[1]', #47 ) ;
#99 = ADVANCED_FACE ( 'NONE', ( #64 ), #49, .F. ) ;
#100 = DATE_AND_TIME ( #232, #23 ) ;
#101 = DATE_AND_TIME ( #278, #145 ) ;
#102 = ORIENTED_EDGE ( 'NONE', *, *, #248, .F. ) ;
#103 = DATE_AND_TIME ( #231, #66 ) ;
#104 = APPROVAL_STATUS ( 'not_yet_approved' ) ;
#105 = EDGE_LOOP ( 'NONE', ( #48 ) ) ;
#106 = CIRCLE ( 'NONE', #274, 0.2184999999999995279 ) ;
#107 = PRODUCT ( '978100', '978100', '', ( #11 ) ) ;
#108 = EDGE_CURVE ( 'NONE', #138, #138, #167, .T. ) ;
#109 = CARTESIAN_POINT ( 'NONE',  ( 1.326762908760390423E-13, -4.653657836759941152E-15, 38.00000000000000000 ) ) ;
#110 = DIRECTION ( 'NONE',  ( 3.491481338843133355E-15, -1.224646799147352961E-16, 1.000000000000000000 ) ) ;
#111 = CARTESIAN_POINT ( 'NONE',  ( 1.866998543791202749E-14, -6.548549365651902423E-16, 5.347296355333846840 ) ) ;
#112 = EDGE_CURVE ( 'NONE', #159, #159, #87, .T. ) ;
#113 = FACE_OUTER_BOUND ( 'NONE', #26, .T. ) ;
#114 = CARTESIAN_POINT ( 'NONE',  ( 1.745740669421566993E-14, -6.123233995736766282E-16, 5.000000000000000888 ) ) ;
#115 = CYLINDRICAL_SURFACE ( 'NONE', #165, 1.500000000000000000 ) ;
#116 = CONICAL_SURFACE ( 'NONE', #280, 1.499999999999996891, 0.1745329251994260922 ) ;
#117 = AXIS2_PLACEMENT_3D ( 'NONE', #262, #3, #180 ) ;
#118 = CC_DESIGN_DATE_AND_TIME_ASSIGNMENT ( #209, #187, ( #85 ) ) ;
#119 = FACE_OUTER_BOUND ( 'NONE', #234, .T. ) ;
#120 = VERTEX_POINT ( 'NONE', #204 ) ;
#121 = DIRECTION ( 'NONE',  ( -3.491481338843133355E-15, 1.224646799147352961E-16, -1.000000000000000000 ) ) ;
#122 = ADVANCED_FACE ( 'NONE', ( #174, #263 ), #69, .T. ) ;
#123 = PERSON_AND_ORGANIZATION_ROLE ( 'creator' ) ;
#124 = AXIS2_PLACEMENT_3D ( 'NONE', #109, #50, #240 ) ;
#125 = CALENDAR_DATE ( 2021, 26, 11 ) ;
#126 = APPROVAL_STATUS ( 'not_yet_approved' ) ;
#127 = EDGE_LOOP ( 'NONE', ( #45 ) ) ;
#128 = PERSON_AND_ORGANIZATION_ROLE ( 'design_owner' ) ;
#129 = CC_DESIGN_APPROVAL ( #197, ( #85 ) ) ;
#130 = CC_DESIGN_PERSON_AND_ORGANIZATION_ASSIGNMENT ( #97, #272, ( #33 ) ) ;
#131 = ORIENTED_EDGE ( 'NONE', *, *, #31, .F. ) ;
#132 = EDGE_LOOP ( 'NONE', ( #131 ) ) ;
#133 = CC_DESIGN_SECURITY_CLASSIFICATION ( #33, ( #279 ) ) ;
#134 = AXIS2_PLACEMENT_3D ( 'NONE', #24, #153, #136 ) ;
#135 = CYLINDRICAL_SURFACE ( 'NONE', #39, 0.2184999999999996112 ) ;
#136 = DIRECTION ( 'NONE',  ( 4.275831445896957731E-31, 1.000000000000000000, 1.224646799147352961E-16 ) ) ;
#137 = CARTESIAN_POINT ( 'NONE',  ( 0.0000000000000000000, 0.0000000000000000000, 0.0000000000000000000 ) ) ;
#138 = VERTEX_POINT ( 'NONE', #184 ) ;
#139 = DIRECTION ( 'NONE',  ( 0.0000000000000000000, 1.000000000000000000, 0.0000000000000000000 ) ) ;
#140 = CC_DESIGN_PERSON_AND_ORGANIZATION_ASSIGNMENT ( #164, #128, ( #107 ) ) ;
#141 = DIRECTION ( 'NONE',  ( 4.275831445896957731E-31, 1.000000000000000000, 1.224646799147353207E-16 ) ) ;
#142 = AXIS2_PLACEMENT_3D ( 'NONE', #269, #252, #246 ) ;
#143 = VERTEX_POINT ( 'NONE', #228 ) ;
#144 = DIRECTION ( 'NONE',  ( -4.275831445896957731E-31, -1.000000000000000000, -1.224646799147352961E-16 ) ) ;
#145 = LOCAL_TIME ( 15, 47, 32.00000000000000000, #14 ) ;
#146 = COORDINATED_UNIVERSAL_TIME_OFFSET ( 1, 0, .AHEAD. ) ;
#147 = AXIS2_PLACEMENT_3D ( 'NONE', #236, #192, #63 ) ;
#148 = PRODUCT_DEFINITION_SHAPE ( 'NONE', 'NONE',  #85 ) ;
#149 = APPROVAL ( #207, 'UNSPECIFIED' ) ;
#150 = APPLICATION_PROTOCOL_DEFINITION ( 'international standard', 'config_control_design', 1994, #283 ) ;
#151 = DIRECTION ( 'NONE',  ( -3.491481338843133355E-15, 1.224646799147352961E-16, -1.000000000000000000 ) ) ;
#152 = EDGE_CURVE ( 'NONE', #6, #6, #275, .T. ) ;
#153 = DIRECTION ( 'NONE',  ( -3.491481338843133355E-15, 1.224646799147352961E-16, -1.000000000000000000 ) ) ;
#154 = CIRCLE ( 'NONE', #12, 0.1607649730810375988 ) ;
#155 = CARTESIAN_POINT ( 'NONE',  ( 3.491481338843132862E-16, -1.224646799147352653E-17, 0.09999999999999997780 ) ) ;
#156 = EDGE_LOOP ( 'NONE', ( #215 ) ) ;
#157 = ORIENTED_EDGE ( 'NONE', *, *, #108, .F. ) ;
#158 = CARTESIAN_POINT ( 'NONE',  ( 1.745740669421566678E-14, -4.336808689942017736E-16, 5.000000000000000000 ) ) ;
#159 = VERTEX_POINT ( 'NONE', #34 ) ;
#160 = FACE_OUTER_BOUND ( 'NONE', #59, .T. ) ;
#161 = VERTEX_POINT ( 'NONE', #10 ) ;
#162 = FACE_OUTER_BOUND ( 'NONE', #188, .T. ) ;
#163 = DATE_TIME_ROLE ( 'classification_date' ) ;
#164 = PERSON_AND_ORGANIZATION ( #266, #78 ) ;
#165 = AXIS2_PLACEMENT_3D ( 'NONE', #224, #51, #141 ) ;
#166 = PERSON_AND_ORGANIZATION ( #266, #78 ) ;
#167 = CIRCLE ( 'NONE', #56, 0.2488844939755803787 ) ;
#168 = ORIENTED_EDGE ( 'NONE', *, *, #237, .T. ) ;
#169 = ADVANCED_FACE ( 'NONE', ( #119 ), #75, .F. ) ;
#170 = APPROVAL_ROLE ( '' ) ;
#171 = ORIENTED_EDGE ( 'NONE', *, *, #112, .T. ) ;
#172 = PERSON_AND_ORGANIZATION_ROLE ( 'creator' ) ;
#173 = DIRECTION ( 'NONE',  ( 4.275831445896957731E-31, 1.000000000000000000, 1.224646799147352961E-16 ) ) ;
#174 = FACE_OUTER_BOUND ( 'NONE', #105, .T. ) ;
#175 = EDGE_LOOP ( 'NONE', ( #67 ) ) ;
#176 = AXIS2_PLACEMENT_3D ( 'NONE', #57, #222, #144 ) ;
#177 = DIRECTION ( 'NONE',  ( 0.0000000000000000000, 1.000000000000000000, 0.0000000000000000000 ) ) ;
#178 = AXIS2_PLACEMENT_3D ( 'NONE', #28, #110, #196 ) ;
#179 = EDGE_CURVE ( 'NONE', #35, #35, #251, .T. ) ;
#180 = DIRECTION ( 'NONE',  ( 0.0000000000000000000, 1.000000000000000000, 0.0000000000000000000 ) ) ;
#181 = CARTESIAN_POINT ( 'NONE',  ( 4.344354206815949631E-14, -1.523794331807116710E-15, 12.44272497889221540 ) ) ;
#182 = CARTESIAN_POINT ( 'NONE',  ( 3.491481338843133848E-16, 0.2184999999999993059, 0.1000000000000000056 ) ) ;
#183 = FACE_OUTER_BOUND ( 'NONE', #216, .T. ) ;
#184 = CARTESIAN_POINT ( 'NONE',  ( 1.866998543791202749E-14, 0.2488844939755797403, 5.347296355333846840 ) ) ;
#185 = PERSON_AND_ORGANIZATION ( #266, #78 ) ;
#186 = APPROVAL_DATE_TIME ( #100, #149 ) ;
#187 = DATE_TIME_ROLE ( 'creation_date' ) ;
#188 = EDGE_LOOP ( 'NONE', ( #1 ) ) ;
#189 = EDGE_LOOP ( 'NONE', ( #256 ) ) ;
#190 =( NAMED_UNIT ( * ) SI_UNIT ( $, .STERADIAN. ) SOLID_ANGLE_UNIT ( ) );
#191 = APPROVAL_PERSON_ORGANIZATION ( #166, #197, #20 ) ;
#192 = DIRECTION ( 'NONE',  ( -3.491481338843133355E-15, 1.224646799147352961E-16, -1.000000000000000000 ) ) ;
#193 = TOROIDAL_SURFACE ( 'NONE', #212, 2.218499999999999694, 2.000000000000000444 ) ;
#194 = FACE_BOUND ( 'NONE', #127, .T. ) ;
#195 = MANIFOLD_SOLID_BREP ( 'Corps-Déplacer/Copier1[2]', #226 ) ;
#196 = DIRECTION ( 'NONE',  ( -4.275831445896957731E-31, -1.000000000000000000, -1.224646799147352961E-16 ) ) ;
#197 = APPROVAL ( #126, 'UNSPECIFIED' ) ;
#198 = FACE_OUTER_BOUND ( 'NONE', #132, .T. ) ;
#199 = CARTESIAN_POINT ( 'NONE',  ( 0.0000000000000000000, 0.0000000000000000000, 0.0000000000000000000 ) ) ;
#200 = FACE_OUTER_BOUND ( 'NONE', #261, .T. ) ;
#201 = DIRECTION ( 'NONE',  ( 4.275831445896957731E-31, 1.000000000000000000, 1.224646799147352961E-16 ) ) ;
#202 = ADVANCED_BREP_SHAPE_REPRESENTATION ( '978100', ( #98, #195, #18 ), #96 ) ;
#203 = DIRECTION ( 'NONE',  ( -3.491481338843133355E-15, 1.224646799147352961E-16, -1.000000000000000000 ) ) ;
#204 = CARTESIAN_POINT ( 'NONE',  ( 0.0000000000000000000, 0.1607649730810375988, 0.0000000000000000000 ) ) ;
#205 = APPROVAL ( #104, 'UNSPECIFIED' ) ;
#206 = SECURITY_CLASSIFICATION_LEVEL ( 'unclassified' ) ;
#207 = APPROVAL_STATUS ( 'not_yet_approved' ) ;
#208 = ADVANCED_FACE ( 'NONE', ( #183 ), #245, .T. ) ;
#209 = DATE_AND_TIME ( #125, #250 ) ;
#210 = PERSON_AND_ORGANIZATION_ROLE ( 'design_supplier' ) ;
#211 = EDGE_LOOP ( 'NONE', ( #43 ) ) ;
#212 = AXIS2_PLACEMENT_3D ( 'NONE', #158, #121, #55 ) ;
#213 = APPROVAL_DATE_TIME ( #103, #197 ) ;
#214 = ORIENTED_EDGE ( 'NONE', *, *, #152, .T. ) ;
#215 = ORIENTED_EDGE ( 'NONE', *, *, #179, .T. ) ;
#216 = EDGE_LOOP ( 'NONE', ( #102 ) ) ;
#217 = ADVANCED_FACE ( 'NONE', ( #162, #229 ), #115, .T. ) ;
#218 = ORIENTED_EDGE ( 'NONE', *, *, #268, .F. ) ;
#219 = FACE_OUTER_BOUND ( 'NONE', #189, .T. ) ;
#220 = DIRECTION ( 'NONE',  ( 4.275831445896957731E-31, 1.000000000000000000, 1.224646799147352961E-16 ) ) ;
#221 = ADVANCED_FACE ( 'NONE', ( #36, #160 ), #193, .F. ) ;
#222 = DIRECTION ( 'NONE',  ( 3.491481338843133355E-15, -1.224646799147352961E-16, 1.000000000000000000 ) ) ;
#223 = VERTEX_POINT ( 'NONE', #93 ) ;
#224 = CARTESIAN_POINT ( 'NONE',  ( 0.0000000000000000000, 0.0000000000000000000, 0.0000000000000000000 ) ) ;
#225 = APPROVAL_PERSON_ORGANIZATION ( #233, #205, #255 ) ;
#226 = CLOSED_SHELL ( 'NONE', ( #99, #61, #122, #208 ) ) ;
#227 = ADVANCED_FACE ( 'NONE', ( #95, #200 ), #116, .T. ) ;
#228 = CARTESIAN_POINT ( 'NONE',  ( 1.745740669421566993E-14, 0.2184999999999990838, 5.000000000000000888 ) ) ;
#229 = FACE_OUTER_BOUND ( 'NONE', #44, .T. ) ;
#230 = APPROVAL_DATE_TIME ( #101, #205 ) ;
#231 = CALENDAR_DATE ( 2021, 26, 11 ) ;
#232 = CALENDAR_DATE ( 2021, 26, 11 ) ;
#233 = PERSON_AND_ORGANIZATION ( #266, #78 ) ;
#234 = EDGE_LOOP ( 'NONE', ( #214 ) ) ;
#235 = FACE_OUTER_BOUND ( 'NONE', #156, .T. ) ;
#236 = CARTESIAN_POINT ( 'NONE',  ( 1.326762908760390423E-13, -4.653657836759941152E-15, 38.00000000000000000 ) ) ;
#237 = EDGE_CURVE ( 'NONE', #161, #161, #238, .T. ) ;
#238 = CIRCLE ( 'NONE', #72, 1.499999999999996891 ) ;
#239 = LOCAL_TIME ( 15, 47, 32.00000000000000000, #58 ) ;
#240 = DIRECTION ( 'NONE',  ( 0.0000000000000000000, 1.000000000000000000, 0.0000000000000000000 ) ) ;
#241 = CONICAL_SURFACE ( 'NONE', #19, 0.2184999999999993059, 0.5235987755982922653 ) ;
#242 = FACE_OUTER_BOUND ( 'NONE', #175, .T. ) ;
#243 = ORIENTED_EDGE ( 'NONE', *, *, #268, .T. ) ;
#244 = APPROVAL_PERSON_ORGANIZATION ( #185, #149, #170 ) ;
#245 = PLANE ( 'NONE',  #176 ) ;
#246 = DIRECTION ( 'NONE',  ( -4.275831445896957731E-31, -1.000000000000000000, -1.224646799147352961E-16 ) ) ;
#247 = DIRECTION ( 'NONE',  ( -3.491481338843133355E-15, 1.224646799147352961E-16, -1.000000000000000000 ) ) ;
#248 = EDGE_CURVE ( 'NONE', #223, #223, #106, .T. ) ;
#249 = CARTESIAN_POINT ( 'NONE',  ( -6.874039272986784581E-32, 2.411088410876562575E-33, -1.968803096987030573E-17 ) ) ;
#250 = LOCAL_TIME ( 15, 47, 32.00000000000000000, #270 ) ;
#251 = CIRCLE ( 'NONE', #54, 0.2184999999999993059 ) ;
#252 = DIRECTION ( 'NONE',  ( 3.491481338843133355E-15, -1.224646799147352961E-16, 1.000000000000000000 ) ) ;
#253 = DIRECTION ( 'NONE',  ( 1.000000000000000000, 0.0000000000000000000, 0.0000000000000000000 ) ) ;
#254 = AXIS2_PLACEMENT_3D ( 'NONE', #199, #82, #173 ) ;
#255 = APPROVAL_ROLE ( '' ) ;
#256 = ORIENTED_EDGE ( 'NONE', *, *, #112, .F. ) ;
#257 = CC_DESIGN_PERSON_AND_ORGANIZATION_ASSIGNMENT ( #42, #210, ( #279 ) ) ;
#258 =( NAMED_UNIT ( * ) PLANE_ANGLE_UNIT ( ) SI_UNIT ( $, .RADIAN. ) );
#259 = CARTESIAN_POINT ( 'NONE',  ( 1.047444401652940007E-14, -3.673940397442059375E-16, 3.000000000000000000 ) ) ;
#260 = DIRECTION ( 'NONE',  ( 3.491481338843133355E-15, -1.224646799147352961E-16, 1.000000000000000000 ) ) ;
#261 = EDGE_LOOP ( 'NONE', ( #168 ) ) ;
#262 = CARTESIAN_POINT ( 'NONE',  ( 1.316288464743861212E-13, -4.616918432785520292E-15, 37.69999999999999574 ) ) ;
#263 = FACE_OUTER_BOUND ( 'NONE', #211, .T. ) ;
#264 = CARTESIAN_POINT ( 'NONE',  ( 1.047444401652940007E-14, -3.673940397442059375E-16, 3.000000000000000000 ) ) ;
#265 = CIRCLE ( 'NONE', #60, 0.2184999999999996945 ) ;
#266 = PERSON ( 'UNSPECIFIED', 'UNSPECIFIED', 'UNSPECIFIED', ('UNSPECIFIED'), ('UNSPECIFIED'), ('UNSPECIFIED') ) ;
#267 = DIRECTION ( 'NONE',  ( 3.491481338843133355E-15, -1.224646799147352961E-16, 1.000000000000000000 ) ) ;
#268 = EDGE_CURVE ( 'NONE', #143, #143, #265, .T. ) ;
#269 = CARTESIAN_POINT ( 'NONE',  ( 1.047444401652940007E-14, 1.638487562558069638E-33, 3.000000000000000000 ) ) ;
#270 = COORDINATED_UNIVERSAL_TIME_OFFSET ( 1, 0, .AHEAD. ) ;
#271 = SHAPE_DEFINITION_REPRESENTATION ( #148, #202 ) ;
#272 = PERSON_AND_ORGANIZATION_ROLE ( 'classification_officer' ) ;
#273 = EDGE_LOOP ( 'NONE', ( #84 ) ) ;
#274 = AXIS2_PLACEMENT_3D ( 'NONE', #264, #71, #52 ) ;
#275 = CIRCLE ( 'NONE', #46, 0.2184999999999995279 ) ;
#276 = APPLICATION_PROTOCOL_DEFINITION ( 'international standard', 'config_control_design', 1994, #68 ) ;
#277 = EDGE_LOOP ( 'NONE', ( #88 ) ) ;
#278 = CALENDAR_DATE ( 2021, 26, 11 ) ;
#279 = PRODUCT_DEFINITION_FORMATION_WITH_SPECIFIED_SOURCE ( 'ANY', '', #107, .NOT_KNOWN. ) ;
#280 = AXIS2_PLACEMENT_3D ( 'NONE', #181, #267, #53 ) ;
#281 = EDGE_CURVE ( 'NONE', #120, #120, #154, .T. ) ;
#282 = DIRECTION ( 'NONE',  ( -4.407162344135565220E-31, -1.000000000000000000, -1.240505918175638324E-16 ) ) ;
#283 = APPLICATION_CONTEXT ( 'configuration controlled 3d designs of mechanical parts and assemblies' ) ;
ENDSEC;
END-ISO-10303-21;
