ISO-10303-21;
HEADER;
FILE_DESCRIPTION (( 'STEP AP203' ),
    '1' );
FILE_NAME ('977840.step',
    '2023-02-01T15:38:00',
    ( '' ),
    ( '' ),
    'SwSTEP 2.0',
    'SolidWorks 2019',
    '' );
FILE_SCHEMA (( 'CONFIG_CONTROL_DESIGN' ));
ENDSEC;

DATA;
#1 = CIRCLE ( 'NONE', #172, 4.500000000000000888 ) ;
#2 = COORDINATED_UNIVERSAL_TIME_OFFSET ( 1, 0, .AHEAD. ) ;
#3 = CC_DESIGN_PERSON_AND_ORGANIZATION_ASSIGNMENT ( #174, #111, ( #110 ) ) ;
#4 = ORIENTED_EDGE ( 'NONE', *, *, #171, .F. ) ;
#5 = FACE_OUTER_BOUND ( 'NONE', #164, .T. ) ;
#6 = CONICAL_SURFACE ( 'NONE', #188, 5.000000000000000888, 0.7853981633974344012 ) ;
#7 = COORDINATED_UNIVERSAL_TIME_OFFSET ( 1, 0, .AHEAD. ) ;
#8 = EDGE_LOOP ( 'NONE', ( #194 ) ) ;
#9 = CARTESIAN_POINT ( 'NONE',  ( 3.491481338843133355E-14, 4.999999999999999112, 10.00000000000000000 ) ) ;
#10 = PRODUCT ( '977840', '977840', '', ( #99 ) ) ;
#11 = EDGE_LOOP ( 'NONE', ( #21 ) ) ;
#12 = COORDINATED_UNIVERSAL_TIME_OFFSET ( 1, 0, .AHEAD. ) ;
#13 = DIRECTION ( 'NONE',  ( 4.275831445896958607E-31, 1.000000000000000000, 1.224646799147353207E-16 ) ) ;
#14 = MANIFOLD_SOLID_BREP ( 'Corps-Déplacer/Copier1[2]', #96 ) ;
#15 = DIRECTION ( 'NONE',  ( 0.000000000000000000, 1.000000000000000000, 0.000000000000000000 ) ) ;
#16 = ADVANCED_FACE ( 'NONE', ( #33, #52 ), #180, .T. ) ;
#17 = DIRECTION ( 'NONE',  ( -3.491481338843133355E-15, 1.224646799147353207E-16, -1.000000000000000000 ) ) ;
#18 = DIRECTION ( 'NONE',  ( -3.491481338843133355E-15, 1.224646799147353207E-16, -1.000000000000000000 ) ) ;
#19 = ADVANCED_FACE ( 'NONE', ( #197 ), #72, .T. ) ;
#20 = PRODUCT_DEFINITION_SHAPE ( 'NONE', 'NONE',  #64 ) ;
#21 = ORIENTED_EDGE ( 'NONE', *, *, #109, .T. ) ;
#22 = LOCAL_TIME ( 16, 38, 0.000000000000000000, #7 ) ;
#23 = CALENDAR_DATE ( 2023, 1, 2 ) ;
#24 = ORIENTED_EDGE ( 'NONE', *, *, #81, .T. ) ;
#25 = APPLICATION_CONTEXT ( 'configuration controlled 3d designs of mechanical parts and assemblies' ) ;
#26 = DIRECTION ( 'NONE',  ( -3.491481338843133355E-15, 1.224646799147353207E-16, -1.000000000000000000 ) ) ;
#27 = PERSON_AND_ORGANIZATION ( #32, #202 ) ;
#28 = DIRECTION ( 'NONE',  ( -3.491481338843133355E-15, 1.224646799147353207E-16, -1.000000000000000000 ) ) ;
#29 = ADVANCED_FACE ( 'NONE', ( #142, #5 ), #56, .T. ) ;
#30 = AXIS2_PLACEMENT_3D ( 'NONE', #145, #42, #136 ) ;
#31 = DATE_TIME_ROLE ( 'classification_date' ) ;
#32 = PERSON ( 'UNSPECIFIED', 'UNSPECIFIED', 'UNSPECIFIED', ('UNSPECIFIED'), ('UNSPECIFIED'), ('UNSPECIFIED') ) ;
#33 = FACE_OUTER_BOUND ( 'NONE', #69, .T. ) ;
#34 = FACE_OUTER_BOUND ( 'NONE', #11, .T. ) ;
#35 = AXIS2_PLACEMENT_3D ( 'NONE', #121, #91, #182 ) ;
#36 = DIRECTION ( 'NONE',  ( -4.275831445896958607E-31, -1.000000000000000000, -1.224646799147353207E-16 ) ) ;
#37 = DIRECTION ( 'NONE',  ( 3.491481338843133355E-15, -1.224646799147353207E-16, 1.000000000000000000 ) ) ;
#38 = APPROVAL ( #146, 'UNSPECIFIED' ) ;
#39 = ORIENTED_EDGE ( 'NONE', *, *, #179, .F. ) ;
#40 = CARTESIAN_POINT ( 'NONE',  ( 2.513866563967056016E-13, 4.499999999999992006, 72.00000000000000000 ) ) ;
#41 = DIRECTION ( 'NONE',  ( 0.000000000000000000, 1.000000000000000000, 0.000000000000000000 ) ) ;
#42 = DIRECTION ( 'NONE',  ( 0.000000000000000000, 0.000000000000000000, 1.000000000000000000 ) ) ;
#43 = AXIS2_PLACEMENT_3D ( 'NONE', #44, #170, #59 ) ;
#44 = CARTESIAN_POINT ( 'NONE',  ( -2.137915722948479128E-30, 7.498798913309288039E-32, -6.123233995736766282E-16 ) ) ;
#45 = ADVANCED_BREP_SHAPE_REPRESENTATION ( '977840', ( #82, #14, #30 ), #155 ) ;
#46 = DESIGN_CONTEXT ( 'detailed design', #74, 'design' ) ;
#47 = ADVANCED_FACE ( 'NONE', ( #125 ), #200, .T. ) ;
#48 = DATE_AND_TIME ( #159, #124 ) ;
#49 = CC_DESIGN_APPROVAL ( #38, ( #110 ) ) ;
#50 = EDGE_LOOP ( 'NONE', ( #113 ) ) ;
#51 = CALENDAR_DATE ( 2023, 1, 2 ) ;
#52 = FACE_OUTER_BOUND ( 'NONE', #98, .T. ) ;
#53 = CC_DESIGN_APPROVAL ( #147, ( #64 ) ) ;
#54 = PERSON_AND_ORGANIZATION ( #32, #202 ) ;
#55 = CARTESIAN_POINT ( 'NONE',  ( 3.491481338843133355E-14, 3.749399456654642925E-32, 10.00000000000000000 ) ) ;
#56 = CYLINDRICAL_SURFACE ( 'NONE', #35, 5.000000000000000888 ) ;
#57 = VERTEX_POINT ( 'NONE', #9 ) ;
#58 = CIRCLE ( 'NONE', #43, 5.000000000000000000 ) ;
#59 = DIRECTION ( 'NONE',  ( 4.275831445896958607E-31, 1.000000000000000000, 1.224646799147353207E-16 ) ) ;
#60 = PERSON_AND_ORGANIZATION ( #32, #202 ) ;
#61 = DATE_AND_TIME ( #157, #84 ) ;
#62 = SECURITY_CLASSIFICATION_LEVEL ( 'unclassified' ) ;
#63 = APPROVAL_PERSON_ORGANIZATION ( #129, #38, #178 ) ;
#64 = PRODUCT_DEFINITION ( 'UNKNOWN', '', #110, #46 ) ;
#65 = CC_DESIGN_PERSON_AND_ORGANIZATION_ASSIGNMENT ( #60, #141, ( #116 ) ) ;
#66 = APPROVAL_PERSON_ORGANIZATION ( #134, #147, #162 ) ;
#67 = CARTESIAN_POINT ( 'NONE',  ( 0.000000000000000000, 0.000000000000000000, 0.000000000000000000 ) ) ;
#68 = DATE_TIME_ROLE ( 'creation_date' ) ;
#69 = EDGE_LOOP ( 'NONE', ( #24 ) ) ;
#70 = ORIENTED_EDGE ( 'NONE', *, *, #92, .T. ) ;
#71 = CARTESIAN_POINT ( 'NONE',  ( 2.496409157272839907E-13, 4.999999999999992006, 71.49999999999998579 ) ) ;
#72 = PLANE ( 'NONE',  #158 ) ;
#73 = DIRECTION ( 'NONE',  ( 4.275831445896958607E-31, 1.000000000000000000, 1.224646799147353207E-16 ) ) ;
#74 = APPLICATION_CONTEXT ( 'configuration controlled 3d designs of mechanical parts and assemblies' ) ;
#75 =( NAMED_UNIT ( * ) SI_UNIT ( $, .STERADIAN. ) SOLID_ANGLE_UNIT ( ) );
#76 = DIRECTION ( 'NONE',  ( 4.275831445896958607E-31, 1.000000000000000000, 1.224646799147353207E-16 ) ) ;
#77 = FACE_BOUND ( 'NONE', #192, .T. ) ;
#78 = APPROVAL_PERSON_ORGANIZATION ( #112, #104, #97 ) ;
#79 = CLOSED_SHELL ( 'NONE', ( #186, #29, #101, #176 ) ) ;
#80 = APPROVAL_STATUS ( 'not_yet_approved' ) ;
#81 = EDGE_CURVE ( 'NONE', #57, #57, #106, .T. ) ;
#82 = MANIFOLD_SOLID_BREP ( 'Corps-Déplacer/Copier1[1]', #79 ) ;
#83 = DIRECTION ( 'NONE',  ( -3.491481338843133355E-15, 1.224646799147353207E-16, -1.000000000000000000 ) ) ;
#84 = LOCAL_TIME ( 16, 38, 0.000000000000000000, #175 ) ;
#85 = DATE_AND_TIME ( #23, #108 ) ;
#86 = PERSON_AND_ORGANIZATION_ROLE ( 'creator' ) ;
#87 = ORIENTED_EDGE ( 'NONE', *, *, #109, .F. ) ;
#88 = PLANE ( 'NONE',  #89 ) ;
#89 = AXIS2_PLACEMENT_3D ( 'NONE', #191, #37, #36 ) ;
#90 = VERTEX_POINT ( 'NONE', #118 ) ;
#91 = DIRECTION ( 'NONE',  ( -3.491481338843133355E-15, 1.224646799147353207E-16, -1.000000000000000000 ) ) ;
#92 = EDGE_CURVE ( 'NONE', #166, #166, #196, .T. ) ;
#93 = PERSON_AND_ORGANIZATION_ROLE ( 'creator' ) ;
#94 = DIRECTION ( 'NONE',  ( 0.000000000000000000, 1.000000000000000000, 0.000000000000000000 ) ) ;
#95 = SHAPE_DEFINITION_REPRESENTATION ( #20, #45 ) ;
#96 = CLOSED_SHELL ( 'NONE', ( #47, #16, #19 ) ) ;
#97 = APPROVAL_ROLE ( '' ) ;
#98 = EDGE_LOOP ( 'NONE', ( #4 ) ) ;
#99 = MECHANICAL_CONTEXT ( 'NONE', #25, 'mechanical' ) ;
#100 = CC_DESIGN_APPROVAL ( #104, ( #116 ) ) ;
#101 = ADVANCED_FACE ( 'NONE', ( #77, #184 ), #6, .T. ) ;
#102 = CARTESIAN_POINT ( 'NONE',  ( 3.491481338843133355E-14, 4.999999999999999112, 10.00000000000000000 ) ) ;
#103 = PERSON_AND_ORGANIZATION_ROLE ( 'design_owner' ) ;
#104 = APPROVAL ( #80, 'UNSPECIFIED' ) ;
#105 = PLANE ( 'NONE',  #163 ) ;
#106 = CIRCLE ( 'NONE', #117, 5.000000000000000000 ) ;
#107 = CARTESIAN_POINT ( 'NONE',  ( 3.491481338843133355E-14, -1.224646799147353256E-15, 10.00000000000000000 ) ) ;
#108 = LOCAL_TIME ( 16, 38, 0.000000000000000000, #131 ) ;
#109 = EDGE_CURVE ( 'NONE', #169, #169, #149, .T. ) ;
#110 = PRODUCT_DEFINITION_FORMATION_WITH_SPECIFIED_SOURCE ( 'ANY', '', #10, .NOT_KNOWN. ) ;
#111 = PERSON_AND_ORGANIZATION_ROLE ( 'design_supplier' ) ;
#112 = PERSON_AND_ORGANIZATION ( #32, #202 ) ;
#113 = ORIENTED_EDGE ( 'NONE', *, *, #171, .T. ) ;
#114 = APPLICATION_PROTOCOL_DEFINITION ( 'international standard', 'config_control_design', 1994, #25 ) ;
#115 = DATE_AND_TIME ( #51, #22 ) ;
#116 = SECURITY_CLASSIFICATION ( '', '', #62 ) ;
#117 = AXIS2_PLACEMENT_3D ( 'NONE', #107, #17, #41 ) ;
#118 = CARTESIAN_POINT ( 'NONE',  ( 0.000000000000000000, 5.000000000000000000, 0.000000000000000000 ) ) ;
#119 = DIRECTION ( 'NONE',  ( 3.491481338843133355E-15, -1.224646799147353207E-16, 1.000000000000000000 ) ) ;
#120 = CALENDAR_DATE ( 2023, 1, 2 ) ;
#121 = CARTESIAN_POINT ( 'NONE',  ( 0.000000000000000000, 0.000000000000000000, 0.000000000000000000 ) ) ;
#122 = APPROVAL_DATE_TIME ( #85, #147 ) ;
#123 = CARTESIAN_POINT ( 'NONE',  ( 2.496409157272839907E-13, -8.756224613903572559E-15, 71.49999999999998579 ) ) ;
#124 = LOCAL_TIME ( 16, 38, 0.000000000000000000, #2 ) ;
#125 = FACE_OUTER_BOUND ( 'NONE', #50, .T. ) ;
#126 = CC_DESIGN_PERSON_AND_ORGANIZATION_ASSIGNMENT ( #27, #86, ( #64 ) ) ;
#127 = ORIENTED_EDGE ( 'NONE', *, *, #81, .F. ) ;
#128 = AXIS2_PLACEMENT_3D ( 'NONE', #123, #18, #137 ) ;
#129 = PERSON_AND_ORGANIZATION ( #32, #202 ) ;
#130 =( LENGTH_UNIT ( ) NAMED_UNIT ( * ) SI_UNIT ( .MILLI., .METRE. ) );
#131 = COORDINATED_UNIVERSAL_TIME_OFFSET ( 1, 0, .AHEAD. ) ;
#132 = AXIS2_PLACEMENT_3D ( 'NONE', #135, #152, #15 ) ;
#133 = PRODUCT_RELATED_PRODUCT_CATEGORY ( 'detail', '', ( #10 ) ) ;
#134 = PERSON_AND_ORGANIZATION ( #32, #202 ) ;
#135 = CARTESIAN_POINT ( 'NONE',  ( 3.491481338843133355E-14, -1.224646799147353256E-15, 10.00000000000000000 ) ) ;
#136 = DIRECTION ( 'NONE',  ( 1.000000000000000000, 0.000000000000000000, 0.000000000000000000 ) ) ;
#137 = DIRECTION ( 'NONE',  ( 0.000000000000000000, 1.000000000000000000, 0.000000000000000000 ) ) ;
#138 = DIRECTION ( 'NONE',  ( -3.491481338843133355E-15, 1.224646799147353207E-16, -1.000000000000000000 ) ) ;
#139 = CC_DESIGN_PERSON_AND_ORGANIZATION_ASSIGNMENT ( #54, #93, ( #110 ) ) ;
#140 = CC_DESIGN_DATE_AND_TIME_ASSIGNMENT ( #115, #68, ( #64 ) ) ;
#141 = PERSON_AND_ORGANIZATION_ROLE ( 'classification_officer' ) ;
#142 = FACE_OUTER_BOUND ( 'NONE', #161, .T. ) ;
#143 = DIRECTION ( 'NONE',  ( 0.000000000000000000, 1.000000000000000000, 0.000000000000000000 ) ) ;
#144 = CC_DESIGN_SECURITY_CLASSIFICATION ( #116, ( #110 ) ) ;
#145 = CARTESIAN_POINT ( 'NONE',  ( 0.000000000000000000, 0.000000000000000000, 0.000000000000000000 ) ) ;
#146 = APPROVAL_STATUS ( 'not_yet_approved' ) ;
#147 = APPROVAL ( #183, 'UNSPECIFIED' ) ;
#148 = EDGE_LOOP ( 'NONE', ( #127 ) ) ;
#149 = CIRCLE ( 'NONE', #132, 5.000000000000000000 ) ;
#150 = FACE_OUTER_BOUND ( 'NONE', #177, .T. ) ;
#151 =( NAMED_UNIT ( * ) PLANE_ANGLE_UNIT ( ) SI_UNIT ( $, .RADIAN. ) );
#152 = DIRECTION ( 'NONE',  ( -3.491481338843133355E-15, 1.224646799147353207E-16, -1.000000000000000000 ) ) ;
#153 = CARTESIAN_POINT ( 'NONE',  ( 2.513866563967056016E-13, 3.374459510989167028E-32, 72.00000000000000000 ) ) ;
#154 = CC_DESIGN_PERSON_AND_ORGANIZATION_ASSIGNMENT ( #198, #103, ( #10 ) ) ;
#155 =( GEOMETRIC_REPRESENTATION_CONTEXT ( 3 ) GLOBAL_UNCERTAINTY_ASSIGNED_CONTEXT ( ( #156 ) ) GLOBAL_UNIT_ASSIGNED_CONTEXT ( ( #130, #151, #75 ) ) REPRESENTATION_CONTEXT ( 'NONE', 'WORKASPACE' ) );
#156 = UNCERTAINTY_MEASURE_WITH_UNIT (LENGTH_MEASURE( 1.000000000000000082E-05 ), #130, 'distance_accuracy_value', 'NONE');
#157 = CALENDAR_DATE ( 2023, 1, 2 ) ;
#158 = AXIS2_PLACEMENT_3D ( 'NONE', #55, #119, #160 ) ;
#159 = CALENDAR_DATE ( 2023, 1, 2 ) ;
#160 = DIRECTION ( 'NONE',  ( -4.275831445896958607E-31, -1.000000000000000000, -1.224646799147353207E-16 ) ) ;
#161 = EDGE_LOOP ( 'NONE', ( #70 ) ) ;
#162 = APPROVAL_ROLE ( '' ) ;
#163 = AXIS2_PLACEMENT_3D ( 'NONE', #153, #138, #73 ) ;
#164 = EDGE_LOOP ( 'NONE', ( #87 ) ) ;
#165 = VERTEX_POINT ( 'NONE', #40 ) ;
#166 = VERTEX_POINT ( 'NONE', #71 ) ;
#167 = AXIS2_PLACEMENT_3D ( 'NONE', #201, #28, #76 ) ;
#168 = CARTESIAN_POINT ( 'NONE',  ( 2.513866563967056016E-13, -8.817456953860941711E-15, 72.00000000000000000 ) ) ;
#169 = VERTEX_POINT ( 'NONE', #102 ) ;
#170 = DIRECTION ( 'NONE',  ( -3.491481338843133355E-15, 1.224646799147353207E-16, -1.000000000000000000 ) ) ;
#171 = EDGE_CURVE ( 'NONE', #90, #90, #58, .T. ) ;
#172 = AXIS2_PLACEMENT_3D ( 'NONE', #168, #26, #143 ) ;
#173 = CC_DESIGN_DATE_AND_TIME_ASSIGNMENT ( #61, #31, ( #116 ) ) ;
#174 = PERSON_AND_ORGANIZATION ( #32, #202 ) ;
#175 = COORDINATED_UNIVERSAL_TIME_OFFSET ( 1, 0, .AHEAD. ) ;
#176 = ADVANCED_FACE ( 'NONE', ( #150 ), #105, .F. ) ;
#177 = EDGE_LOOP ( 'NONE', ( #39 ) ) ;
#178 = APPROVAL_ROLE ( '' ) ;
#179 = EDGE_CURVE ( 'NONE', #165, #165, #1, .T. ) ;
#180 = CYLINDRICAL_SURFACE ( 'NONE', #190, 5.000000000000000000 ) ;
#181 = DATE_AND_TIME ( #120, #187 ) ;
#182 = DIRECTION ( 'NONE',  ( 4.275831445896958607E-31, 1.000000000000000000, 1.224646799147353207E-16 ) ) ;
#183 = APPROVAL_STATUS ( 'not_yet_approved' ) ;
#184 = FACE_OUTER_BOUND ( 'NONE', #8, .T. ) ;
#185 = DIRECTION ( 'NONE',  ( -3.491481338843133355E-15, 1.224646799147353207E-16, -1.000000000000000000 ) ) ;
#186 = ADVANCED_FACE ( 'NONE', ( #34 ), #88, .F. ) ;
#187 = LOCAL_TIME ( 16, 38, 0.000000000000000000, #12 ) ;
#188 = AXIS2_PLACEMENT_3D ( 'NONE', #199, #185, #94 ) ;
#189 = ORIENTED_EDGE ( 'NONE', *, *, #179, .T. ) ;
#190 = AXIS2_PLACEMENT_3D ( 'NONE', #67, #83, #13 ) ;
#191 = CARTESIAN_POINT ( 'NONE',  ( 3.491481338843133355E-14, 3.749399456654642925E-32, 10.00000000000000000 ) ) ;
#192 = EDGE_LOOP ( 'NONE', ( #189 ) ) ;
#193 = APPLICATION_PROTOCOL_DEFINITION ( 'international standard', 'config_control_design', 1994, #74 ) ;
#194 = ORIENTED_EDGE ( 'NONE', *, *, #92, .F. ) ;
#195 = APPROVAL_DATE_TIME ( #181, #38 ) ;
#196 = CIRCLE ( 'NONE', #128, 5.000000000000000888 ) ;
#197 = FACE_OUTER_BOUND ( 'NONE', #148, .T. ) ;
#198 = PERSON_AND_ORGANIZATION ( #32, #202 ) ;
#199 = CARTESIAN_POINT ( 'NONE',  ( 2.496409157272839907E-13, -8.756224613903572559E-15, 71.49999999999998579 ) ) ;
#200 = PLANE ( 'NONE',  #167 ) ;
#201 = CARTESIAN_POINT ( 'NONE',  ( -1.068957861474239564E-30, 3.749399456654644020E-32, -3.061616997868383141E-16 ) ) ;
#202 = ORGANIZATION ( 'UNSPECIFIED', 'UNSPECIFIED', '' ) ;
#203 = APPROVAL_DATE_TIME ( #48, #104 ) ;
ENDSEC;
END-ISO-10303-21;
