ISO-10303-21;
HEADER;
FILE_DESCRIPTION (( 'STEP AP203' ),
    '1' );
FILE_NAME ('977839.step',
    '2023-02-01T15:37:59',
    ( '' ),
    ( '' ),
    'SwSTEP 2.0',
    'SolidWorks 2019',
    '' );
FILE_SCHEMA (( 'CONFIG_CONTROL_DESIGN' ));
ENDSEC;

DATA;
#1 = CC_DESIGN_SECURITY_CLASSIFICATION ( #197, ( #193 ) ) ;
#2 = DIRECTION ( 'NONE',  ( 0.000000000000000000, 1.000000000000000000, 0.000000000000000000 ) ) ;
#3 = VERTEX_POINT ( 'NONE', #69 ) ;
#4 = PERSON_AND_ORGANIZATION ( #115, #177 ) ;
#5 = COORDINATED_UNIVERSAL_TIME_OFFSET ( 1, 0, .AHEAD. ) ;
#6 = APPROVAL_ROLE ( '' ) ;
#7 = PRODUCT_DEFINITION_SHAPE ( 'NONE', 'NONE',  #76 ) ;
#8 = APPROVAL ( #144, 'UNSPECIFIED' ) ;
#9 = EDGE_LOOP ( 'NONE', ( #106 ) ) ;
#10 = ORIENTED_EDGE ( 'NONE', *, *, #169, .T. ) ;
#11 = EDGE_LOOP ( 'NONE', ( #62 ) ) ;
#12 = LOCAL_TIME ( 16, 37, 59.00000000000000000, #24 ) ;
#13 = MANIFOLD_SOLID_BREP ( 'Corps-Déplacer/Copier1[1]', #183 ) ;
#14 = CARTESIAN_POINT ( 'NONE',  ( -1.710332578358783092E-30, 5.999039130647430431E-32, -4.898587196589412829E-16 ) ) ;
#15 = CC_DESIGN_PERSON_AND_ORGANIZATION_ASSIGNMENT ( #4, #128, ( #197 ) ) ;
#16 = DIRECTION ( 'NONE',  ( 3.491481338843133355E-15, -1.224646799147353207E-16, 1.000000000000000000 ) ) ;
#17 = DIRECTION ( 'NONE',  ( 4.275831445896958607E-31, 1.000000000000000000, 1.224646799147353207E-16 ) ) ;
#18 = AXIS2_PLACEMENT_3D ( 'NONE', #14, #154, #140 ) ;
#19 = CARTESIAN_POINT ( 'NONE',  ( 2.793185071074506684E-14, -9.797174393178825657E-16, 8.000000000000000000 ) ) ;
#20 = PRODUCT ( '977839', '977839', '', ( #192 ) ) ;
#21 = DATE_AND_TIME ( #91, #12 ) ;
#22 = COORDINATED_UNIVERSAL_TIME_OFFSET ( 1, 0, .AHEAD. ) ;
#23 = EDGE_CURVE ( 'NONE', #3, #3, #75, .T. ) ;
#24 = COORDINATED_UNIVERSAL_TIME_OFFSET ( 1, 0, .AHEAD. ) ;
#25 = LOCAL_TIME ( 16, 37, 59.00000000000000000, #5 ) ;
#26 = FACE_OUTER_BOUND ( 'NONE', #94, .T. ) ;
#27 = EDGE_LOOP ( 'NONE', ( #119 ) ) ;
#28 = DIRECTION ( 'NONE',  ( 4.275831445896958607E-31, 1.000000000000000000, 1.224646799147353207E-16 ) ) ;
#29 = CIRCLE ( 'NONE', #60, 4.000000000000000000 ) ;
#30 = PLANE ( 'NONE',  #184 ) ;
#31 = FACE_OUTER_BOUND ( 'NONE', #61, .T. ) ;
#32 = FACE_BOUND ( 'NONE', #44, .T. ) ;
#33 = VERTEX_POINT ( 'NONE', #190 ) ;
#34 = CARTESIAN_POINT ( 'NONE',  ( 0.000000000000000000, 0.000000000000000000, 0.000000000000000000 ) ) ;
#35 = APPLICATION_PROTOCOL_DEFINITION ( 'international standard', 'config_control_design', 1994, #74 ) ;
#36 = ADVANCED_FACE ( 'NONE', ( #26, #45 ), #188, .T. ) ;
#37 = DATE_AND_TIME ( #72, #111 ) ;
#38 = CLOSED_SHELL ( 'NONE', ( #152, #56, #137 ) ) ;
#39 = AXIS2_PLACEMENT_3D ( 'NONE', #189, #16, #79 ) ;
#40 = DESIGN_CONTEXT ( 'detailed design', #165, 'design' ) ;
#41 = PERSON_AND_ORGANIZATION_ROLE ( 'design_owner' ) ;
#42 = ORIENTED_EDGE ( 'NONE', *, *, #202, .F. ) ;
#43 = AXIS2_PLACEMENT_3D ( 'NONE', #124, #80, #142 ) ;
#44 = EDGE_LOOP ( 'NONE', ( #92 ) ) ;
#45 = FACE_OUTER_BOUND ( 'NONE', #27, .T. ) ;
#46 = EDGE_LOOP ( 'NONE', ( #42 ) ) ;
#47 = CIRCLE ( 'NONE', #18, 4.000000000000000000 ) ;
#48 = DIRECTION ( 'NONE',  ( -3.491481338843133355E-15, 1.224646799147353207E-16, -1.000000000000000000 ) ) ;
#49 =( LENGTH_UNIT ( ) NAMED_UNIT ( * ) SI_UNIT ( .MILLI., .METRE. ) );
#50 = VERTEX_POINT ( 'NONE', #110 ) ;
#51 = LOCAL_TIME ( 16, 37, 59.00000000000000000, #22 ) ;
#52 = PLANE ( 'NONE',  #39 ) ;
#53 = DIRECTION ( 'NONE',  ( -4.275831445896958607E-31, -1.000000000000000000, -1.224646799147353207E-16 ) ) ;
#54 = LOCAL_TIME ( 16, 37, 59.00000000000000000, #103 ) ;
#55 = DATE_AND_TIME ( #102, #25 ) ;
#56 = ADVANCED_FACE ( 'NONE', ( #171, #78 ), #200, .T. ) ;
#57 = CALENDAR_DATE ( 2023, 1, 2 ) ;
#58 = APPROVAL_DATE_TIME ( #55, #141 ) ;
#59 = AXIS2_PLACEMENT_3D ( 'NONE', #96, #157, #125 ) ;
#60 = AXIS2_PLACEMENT_3D ( 'NONE', #83, #65, #201 ) ;
#61 = EDGE_LOOP ( 'NONE', ( #136 ) ) ;
#62 = ORIENTED_EDGE ( 'NONE', *, *, #145, .T. ) ;
#63 = CC_DESIGN_DATE_AND_TIME_ASSIGNMENT ( #86, #73, ( #197 ) ) ;
#64 = FACE_OUTER_BOUND ( 'NONE', #46, .T. ) ;
#65 = DIRECTION ( 'NONE',  ( -3.491481338843133355E-15, 1.224646799147353207E-16, -1.000000000000000000 ) ) ;
#66 =( NAMED_UNIT ( * ) PLANE_ANGLE_UNIT ( ) SI_UNIT ( $, .RADIAN. ) );
#67 = CC_DESIGN_APPROVAL ( #141, ( #76 ) ) ;
#68 = FACE_OUTER_BOUND ( 'NONE', #11, .T. ) ;
#69 = CARTESIAN_POINT ( 'NONE',  ( 2.182175836776958284E-13, 3.999999999999991562, 62.50000000000000000 ) ) ;
#70 = CONICAL_SURFACE ( 'NONE', #149, 3.999999999999999112, 0.7853981633974466137 ) ;
#71 = CALENDAR_DATE ( 2023, 1, 2 ) ;
#72 = CALENDAR_DATE ( 2023, 1, 2 ) ;
#73 = DATE_TIME_ROLE ( 'classification_date' ) ;
#74 = APPLICATION_CONTEXT ( 'configuration controlled 3d designs of mechanical parts and assemblies' ) ;
#75 = CIRCLE ( 'NONE', #181, 3.999999999999999112 ) ;
#76 = PRODUCT_DEFINITION ( 'UNKNOWN', '', #193, #40 ) ;
#77 = EDGE_CURVE ( 'NONE', #50, #50, #47, .T. ) ;
#78 = FACE_OUTER_BOUND ( 'NONE', #167, .T. ) ;
#79 = DIRECTION ( 'NONE',  ( -4.275831445896958607E-31, -1.000000000000000000, -1.224646799147353207E-16 ) ) ;
#80 = DIRECTION ( 'NONE',  ( -3.491481338843133355E-15, 1.224646799147353207E-16, -1.000000000000000000 ) ) ;
#81 = DIRECTION ( 'NONE',  ( -3.491481338843133355E-15, 1.224646799147353207E-16, -1.000000000000000000 ) ) ;
#82 = DIRECTION ( 'NONE',  ( -3.491481338843133355E-15, 1.224646799147353207E-16, -1.000000000000000000 ) ) ;
#83 = CARTESIAN_POINT ( 'NONE',  ( 2.793185071074506684E-14, -9.797174393178825657E-16, 8.000000000000000000 ) ) ;
#84 = PERSON_AND_ORGANIZATION ( #115, #177 ) ;
#85 = CC_DESIGN_APPROVAL ( #185, ( #193 ) ) ;
#86 = DATE_AND_TIME ( #57, #51 ) ;
#87 = MANIFOLD_SOLID_BREP ( 'Corps-Déplacer/Copier1[2]', #38 ) ;
#88 = APPROVAL_DATE_TIME ( #21, #185 ) ;
#89 = PRODUCT_RELATED_PRODUCT_CATEGORY ( 'detail', '', ( #20 ) ) ;
#90 = PERSON_AND_ORGANIZATION ( #115, #177 ) ;
#91 = CALENDAR_DATE ( 2023, 1, 2 ) ;
#92 = ORIENTED_EDGE ( 'NONE', *, *, #202, .T. ) ;
#93 = CC_DESIGN_APPROVAL ( #8, ( #197 ) ) ;
#94 = EDGE_LOOP ( 'NONE', ( #196 ) ) ;
#95 = CARTESIAN_POINT ( 'NONE',  ( 2.793185071074506684E-14, 3.999999999999999112, 8.000000000000000000 ) ) ;
#96 = CARTESIAN_POINT ( 'NONE',  ( 2.199633243471174140E-13, 2.624579619658239319E-32, 63.00000000000000000 ) ) ;
#97 = DIRECTION ( 'NONE',  ( 3.491481338843133355E-15, -1.224646799147353207E-16, 1.000000000000000000 ) ) ;
#98 = APPROVAL_PERSON_ORGANIZATION ( #195, #141, #143 ) ;
#99 = DIRECTION ( 'NONE',  ( 0.000000000000000000, 1.000000000000000000, 0.000000000000000000 ) ) ;
#100 = APPROVAL_STATUS ( 'not_yet_approved' ) ;
#101 = DATE_AND_TIME ( #71, #54 ) ;
#102 = CALENDAR_DATE ( 2023, 1, 2 ) ;
#103 = COORDINATED_UNIVERSAL_TIME_OFFSET ( 1, 0, .AHEAD. ) ;
#104 = CC_DESIGN_PERSON_AND_ORGANIZATION_ASSIGNMENT ( #116, #41, ( #20 ) ) ;
#105 = APPROVAL_PERSON_ORGANIZATION ( #129, #185, #166 ) ;
#106 = ORIENTED_EDGE ( 'NONE', *, *, #169, .F. ) ;
#107 = CARTESIAN_POINT ( 'NONE',  ( 0.000000000000000000, 0.000000000000000000, 0.000000000000000000 ) ) ;
#108 = ORIENTED_EDGE ( 'NONE', *, *, #77, .F. ) ;
#109 = CC_DESIGN_PERSON_AND_ORGANIZATION_ASSIGNMENT ( #146, #160, ( #193 ) ) ;
#110 = CARTESIAN_POINT ( 'NONE',  ( 3.421138828918010427E-46, 4.000000000000000000, 0.000000000000000000 ) ) ;
#111 = LOCAL_TIME ( 16, 37, 59.00000000000000000, #114 ) ;
#112 = DIRECTION ( 'NONE',  ( -3.491481338843133355E-15, 1.224646799147353207E-16, -1.000000000000000000 ) ) ;
#113 = PLANE ( 'NONE',  #135 ) ;
#114 = COORDINATED_UNIVERSAL_TIME_OFFSET ( 1, 0, .AHEAD. ) ;
#115 = PERSON ( 'UNSPECIFIED', 'UNSPECIFIED', 'UNSPECIFIED', ('UNSPECIFIED'), ('UNSPECIFIED'), ('UNSPECIFIED') ) ;
#116 = PERSON_AND_ORGANIZATION ( #115, #177 ) ;
#117 = DIRECTION ( 'NONE',  ( 0.000000000000000000, 0.000000000000000000, 1.000000000000000000 ) ) ;
#118 = ADVANCED_FACE ( 'NONE', ( #68 ), #52, .F. ) ;
#119 = ORIENTED_EDGE ( 'NONE', *, *, #145, .F. ) ;
#120 = CARTESIAN_POINT ( 'NONE',  ( 2.182175836776958284E-13, -7.654042494670957804E-15, 62.50000000000000000 ) ) ;
#121 = AXIS2_PLACEMENT_3D ( 'NONE', #19, #82, #99 ) ;
#122 = DIRECTION ( 'NONE',  ( 0.000000000000000000, 1.000000000000000000, 0.000000000000000000 ) ) ;
#123 = DIRECTION ( 'NONE',  ( -3.491481338843133355E-15, 1.224646799147353207E-16, -1.000000000000000000 ) ) ;
#124 = CARTESIAN_POINT ( 'NONE',  ( 2.199633243471174140E-13, -7.715274834628325378E-15, 63.00000000000000000 ) ) ;
#125 = DIRECTION ( 'NONE',  ( 4.275831445896958607E-31, 1.000000000000000000, 1.224646799147353207E-16 ) ) ;
#126 = FACE_OUTER_BOUND ( 'NONE', #151, .T. ) ;
#127 = VERTEX_POINT ( 'NONE', #172 ) ;
#128 = PERSON_AND_ORGANIZATION_ROLE ( 'classification_officer' ) ;
#129 = PERSON_AND_ORGANIZATION ( #115, #177 ) ;
#130 = ADVANCED_BREP_SHAPE_REPRESENTATION ( '977839', ( #13, #87, #187 ), #147 ) ;
#131 = ADVANCED_FACE ( 'NONE', ( #32, #126 ), #70, .T. ) ;
#132 = APPROVAL_DATE_TIME ( #37, #8 ) ;
#133 = APPROVAL_STATUS ( 'not_yet_approved' ) ;
#134 = CC_DESIGN_PERSON_AND_ORGANIZATION_ASSIGNMENT ( #84, #182, ( #193 ) ) ;
#135 = AXIS2_PLACEMENT_3D ( 'NONE', #191, #97, #53 ) ;
#136 = ORIENTED_EDGE ( 'NONE', *, *, #77, .T. ) ;
#137 = ADVANCED_FACE ( 'NONE', ( #139 ), #113, .T. ) ;
#138 = CARTESIAN_POINT ( 'NONE',  ( 2.182175836776958284E-13, -7.654042494670957804E-15, 62.50000000000000000 ) ) ;
#139 = FACE_OUTER_BOUND ( 'NONE', #9, .T. ) ;
#140 = DIRECTION ( 'NONE',  ( 4.275831445896958607E-31, 1.000000000000000000, 1.224646799147353207E-16 ) ) ;
#141 = APPROVAL ( #100, 'UNSPECIFIED' ) ;
#142 = DIRECTION ( 'NONE',  ( 0.000000000000000000, 1.000000000000000000, 0.000000000000000000 ) ) ;
#143 = APPROVAL_ROLE ( '' ) ;
#144 = APPROVAL_STATUS ( 'not_yet_approved' ) ;
#145 = EDGE_CURVE ( 'NONE', #33, #33, #29, .T. ) ;
#146 = PERSON_AND_ORGANIZATION ( #115, #177 ) ;
#147 =( GEOMETRIC_REPRESENTATION_CONTEXT ( 3 ) GLOBAL_UNCERTAINTY_ASSIGNED_CONTEXT ( ( #170 ) ) GLOBAL_UNIT_ASSIGNED_CONTEXT ( ( #49, #66, #176 ) ) REPRESENTATION_CONTEXT ( 'NONE', 'WORKASPACE' ) );
#148 = ADVANCED_FACE ( 'NONE', ( #64 ), #155, .F. ) ;
#149 = AXIS2_PLACEMENT_3D ( 'NONE', #138, #112, #2 ) ;
#150 = DIRECTION ( 'NONE',  ( 4.275831445896958607E-31, 1.000000000000000000, 1.224646799147353207E-16 ) ) ;
#151 = EDGE_LOOP ( 'NONE', ( #198 ) ) ;
#152 = ADVANCED_FACE ( 'NONE', ( #31 ), #30, .T. ) ;
#153 = AXIS2_PLACEMENT_3D ( 'NONE', #107, #48, #150 ) ;
#154 = DIRECTION ( 'NONE',  ( -3.491481338843133355E-15, 1.224646799147353207E-16, -1.000000000000000000 ) ) ;
#155 = PLANE ( 'NONE',  #59 ) ;
#156 = CIRCLE ( 'NONE', #121, 4.000000000000000000 ) ;
#157 = DIRECTION ( 'NONE',  ( -3.491481338843133355E-15, 1.224646799147353207E-16, -1.000000000000000000 ) ) ;
#158 = PERSON_AND_ORGANIZATION ( #115, #177 ) ;
#159 = CC_DESIGN_DATE_AND_TIME_ASSIGNMENT ( #101, #180, ( #76 ) ) ;
#160 = PERSON_AND_ORGANIZATION_ROLE ( 'creator' ) ;
#161 = APPROVAL_PERSON_ORGANIZATION ( #90, #8, #6 ) ;
#162 = SHAPE_DEFINITION_REPRESENTATION ( #7, #130 ) ;
#163 = APPLICATION_PROTOCOL_DEFINITION ( 'international standard', 'config_control_design', 1994, #165 ) ;
#164 = CC_DESIGN_PERSON_AND_ORGANIZATION_ASSIGNMENT ( #158, #178, ( #76 ) ) ;
#165 = APPLICATION_CONTEXT ( 'configuration controlled 3d designs of mechanical parts and assemblies' ) ;
#166 = APPROVAL_ROLE ( '' ) ;
#167 = EDGE_LOOP ( 'NONE', ( #108 ) ) ;
#168 = DIRECTION ( 'NONE',  ( -3.491481338843133355E-15, 1.224646799147353207E-16, -1.000000000000000000 ) ) ;
#169 = EDGE_CURVE ( 'NONE', #174, #174, #156, .T. ) ;
#170 = UNCERTAINTY_MEASURE_WITH_UNIT (LENGTH_MEASURE( 1.000000000000000082E-05 ), #49, 'distance_accuracy_value', 'NONE');
#171 = FACE_OUTER_BOUND ( 'NONE', #186, .T. ) ;
#172 = CARTESIAN_POINT ( 'NONE',  ( 2.199633243471174140E-13, 3.499999999999992895, 63.00000000000000000 ) ) ;
#173 = CIRCLE ( 'NONE', #43, 3.500000000000000444 ) ;
#174 = VERTEX_POINT ( 'NONE', #95 ) ;
#175 = CARTESIAN_POINT ( 'NONE',  ( 0.000000000000000000, 0.000000000000000000, 0.000000000000000000 ) ) ;
#176 =( NAMED_UNIT ( * ) SI_UNIT ( $, .STERADIAN. ) SOLID_ANGLE_UNIT ( ) );
#177 = ORGANIZATION ( 'UNSPECIFIED', 'UNSPECIFIED', '' ) ;
#178 = PERSON_AND_ORGANIZATION_ROLE ( 'creator' ) ;
#179 = DIRECTION ( 'NONE',  ( 1.000000000000000000, 0.000000000000000000, 0.000000000000000000 ) ) ;
#180 = DATE_TIME_ROLE ( 'creation_date' ) ;
#181 = AXIS2_PLACEMENT_3D ( 'NONE', #120, #168, #122 ) ;
#182 = PERSON_AND_ORGANIZATION_ROLE ( 'design_supplier' ) ;
#183 = CLOSED_SHELL ( 'NONE', ( #118, #36, #131, #148 ) ) ;
#184 = AXIS2_PLACEMENT_3D ( 'NONE', #203, #123, #28 ) ;
#185 = APPROVAL ( #133, 'UNSPECIFIED' ) ;
#186 = EDGE_LOOP ( 'NONE', ( #10 ) ) ;
#187 = AXIS2_PLACEMENT_3D ( 'NONE', #34, #117, #179 ) ;
#188 = CYLINDRICAL_SURFACE ( 'NONE', #153, 4.000000000000000000 ) ;
#189 = CARTESIAN_POINT ( 'NONE',  ( 2.793185071074506684E-14, 2.999519565323713574E-32, 8.000000000000000000 ) ) ;
#190 = CARTESIAN_POINT ( 'NONE',  ( 2.793185071074506684E-14, 3.999999999999999112, 8.000000000000000000 ) ) ;
#191 = CARTESIAN_POINT ( 'NONE',  ( 2.793185071074506684E-14, 2.999519565323713574E-32, 8.000000000000000000 ) ) ;
#192 = MECHANICAL_CONTEXT ( 'NONE', #74, 'mechanical' ) ;
#193 = PRODUCT_DEFINITION_FORMATION_WITH_SPECIFIED_SOURCE ( 'ANY', '', #20, .NOT_KNOWN. ) ;
#194 = SECURITY_CLASSIFICATION_LEVEL ( 'unclassified' ) ;
#195 = PERSON_AND_ORGANIZATION ( #115, #177 ) ;
#196 = ORIENTED_EDGE ( 'NONE', *, *, #23, .T. ) ;
#197 = SECURITY_CLASSIFICATION ( '', '', #194 ) ;
#198 = ORIENTED_EDGE ( 'NONE', *, *, #23, .F. ) ;
#199 = AXIS2_PLACEMENT_3D ( 'NONE', #175, #81, #17 ) ;
#200 = CYLINDRICAL_SURFACE ( 'NONE', #199, 4.000000000000000000 ) ;
#201 = DIRECTION ( 'NONE',  ( 0.000000000000000000, 1.000000000000000000, 0.000000000000000000 ) ) ;
#202 = EDGE_CURVE ( 'NONE', #127, #127, #173, .T. ) ;
#203 = CARTESIAN_POINT ( 'NONE',  ( -8.551662891793915461E-31, 2.999519565323715216E-32, -2.449293598294706414E-16 ) ) ;
ENDSEC;
END-ISO-10303-21;
