ISO-10303-21;
HEADER;
FILE_DESCRIPTION (( 'STEP AP203' ),
    '1' );
FILE_NAME ('977838.step',
    '2023-02-01T15:37:59',
    ( '' ),
    ( '' ),
    'SwSTEP 2.0',
    'SolidWorks 2019',
    '' );
FILE_SCHEMA (( 'CONFIG_CONTROL_DESIGN' ));
ENDSEC;

DATA;
#1 = AXIS2_PLACEMENT_3D ( 'NONE', #25, #181, #151 ) ;
#2 = ORIENTED_EDGE ( 'NONE', *, *, #82, .F. ) ;
#3 = PRODUCT_DEFINITION ( 'UNKNOWN', '', #201, #43 ) ;
#4 = PLANE ( 'NONE',  #111 ) ;
#5 = CARTESIAN_POINT ( 'NONE',  ( 1.745740669421566678E-13, 2.499999999999993783, 50.00000000000000000 ) ) ;
#6 = VERTEX_POINT ( 'NONE', #130 ) ;
#7 =( NAMED_UNIT ( * ) SI_UNIT ( $, .STERADIAN. ) SOLID_ANGLE_UNIT ( ) );
#8 =( LENGTH_UNIT ( ) NAMED_UNIT ( * ) SI_UNIT ( .MILLI., .METRE. ) );
#9 = DIRECTION ( 'NONE',  ( -4.275831445896958607E-31, -1.000000000000000000, -1.224646799147353207E-16 ) ) ;
#10 = ADVANCED_FACE ( 'NONE', ( #53, #32 ), #159, .T. ) ;
#11 = COORDINATED_UNIVERSAL_TIME_OFFSET ( 1, 0, .AHEAD. ) ;
#12 = MECHANICAL_CONTEXT ( 'NONE', #176, 'mechanical' ) ;
#13 = CARTESIAN_POINT ( 'NONE',  ( 0.000000000000000000, 0.000000000000000000, 0.000000000000000000 ) ) ;
#14 = APPROVAL ( #188, 'UNSPECIFIED' ) ;
#15 = COORDINATED_UNIVERSAL_TIME_OFFSET ( 1, 0, .AHEAD. ) ;
#16 = CLOSED_SHELL ( 'NONE', ( #45, #51, #134 ) ) ;
#17 = PRODUCT ( '977838', '977838', '', ( #12 ) ) ;
#18 = EDGE_LOOP ( 'NONE', ( #191 ) ) ;
#19 =( GEOMETRIC_REPRESENTATION_CONTEXT ( 3 ) GLOBAL_UNCERTAINTY_ASSIGNED_CONTEXT ( ( #110 ) ) GLOBAL_UNIT_ASSIGNED_CONTEXT ( ( #8, #55, #7 ) ) REPRESENTATION_CONTEXT ( 'NONE', 'WORKASPACE' ) );
#20 = CARTESIAN_POINT ( 'NONE',  ( 0.000000000000000000, 0.000000000000000000, 0.000000000000000000 ) ) ;
#21 = CC_DESIGN_PERSON_AND_ORGANIZATION_ASSIGNMENT ( #60, #121, ( #201 ) ) ;
#22 = EDGE_LOOP ( 'NONE', ( #113 ) ) ;
#23 = CYLINDRICAL_SURFACE ( 'NONE', #124, 3.000000000000000000 ) ;
#24 = CC_DESIGN_PERSON_AND_ORGANIZATION_ASSIGNMENT ( #123, #142, ( #72 ) ) ;
#25 = CARTESIAN_POINT ( 'NONE',  ( 1.745740669421566678E-13, 1.874699728327312978E-32, 50.00000000000000000 ) ) ;
#26 = CARTESIAN_POINT ( 'NONE',  ( 2.094888803305880013E-14, 2.999999999999999112, 6.000000000000000000 ) ) ;
#27 = CARTESIAN_POINT ( 'NONE',  ( 2.094888803305880013E-14, -7.347880794884119736E-16, 6.000000000000000000 ) ) ;
#28 = DIRECTION ( 'NONE',  ( 3.491481338843133355E-15, -1.224646799147353207E-16, 1.000000000000000000 ) ) ;
#29 = PERSON_AND_ORGANIZATION_ROLE ( 'design_owner' ) ;
#30 = CIRCLE ( 'NONE', #120, 3.000000000000000000 ) ;
#31 = DATE_AND_TIME ( #136, #71 ) ;
#32 = FACE_OUTER_BOUND ( 'NONE', #126, .T. ) ;
#33 = EDGE_CURVE ( 'NONE', #58, #58, #153, .T. ) ;
#34 = EDGE_LOOP ( 'NONE', ( #2 ) ) ;
#35 = ORIENTED_EDGE ( 'NONE', *, *, #203, .T. ) ;
#36 = AXIS2_PLACEMENT_3D ( 'NONE', #131, #166, #44 ) ;
#37 = DIRECTION ( 'NONE',  ( -3.491481338843133355E-15, 1.224646799147353207E-16, -1.000000000000000000 ) ) ;
#38 = DIRECTION ( 'NONE',  ( 3.491481338843133355E-15, -1.224646799147353207E-16, 1.000000000000000000 ) ) ;
#39 = CC_DESIGN_DATE_AND_TIME_ASSIGNMENT ( #94, #185, ( #72 ) ) ;
#40 = DIRECTION ( 'NONE',  ( 0.000000000000000000, 1.000000000000000000, 0.000000000000000000 ) ) ;
#41 = CIRCLE ( 'NONE', #154, 3.000000000000000000 ) ;
#42 = DIRECTION ( 'NONE',  ( 4.275831445896959482E-31, 1.000000000000000000, 1.224646799147353207E-16 ) ) ;
#43 = DESIGN_CONTEXT ( 'detailed design', #143, 'design' ) ;
#44 = DIRECTION ( 'NONE',  ( 0.000000000000000000, 1.000000000000000000, 0.000000000000000000 ) ) ;
#45 = ADVANCED_FACE ( 'NONE', ( #145 ), #4, .T. ) ;
#46 = CLOSED_SHELL ( 'NONE', ( #93, #10, #180, #192 ) ) ;
#47 = APPROVAL_ROLE ( '' ) ;
#48 = DATE_AND_TIME ( #62, #177 ) ;
#49 = PERSON_AND_ORGANIZATION ( #163, #132 ) ;
#50 = LOCAL_TIME ( 16, 37, 59.00000000000000000, #11 ) ;
#51 = ADVANCED_FACE ( 'NONE', ( #149, #76 ), #23, .T. ) ;
#52 = ORIENTED_EDGE ( 'NONE', *, *, #203, .F. ) ;
#53 = FACE_OUTER_BOUND ( 'NONE', #144, .T. ) ;
#54 = CARTESIAN_POINT ( 'NONE',  ( -1.282749433769087757E-30, 4.499279347985572824E-32, -3.673940397442059868E-16 ) ) ;
#55 =( NAMED_UNIT ( * ) PLANE_ANGLE_UNIT ( ) SI_UNIT ( $, .RADIAN. ) );
#56 = FACE_OUTER_BOUND ( 'NONE', #175, .T. ) ;
#57 = DIRECTION ( 'NONE',  ( -3.491481338843133355E-15, 1.224646799147353207E-16, -1.000000000000000000 ) ) ;
#58 = VERTEX_POINT ( 'NONE', #114 ) ;
#59 = AXIS2_PLACEMENT_3D ( 'NONE', #104, #90, #135 ) ;
#60 = PERSON_AND_ORGANIZATION ( #163, #132 ) ;
#61 = CC_DESIGN_PERSON_AND_ORGANIZATION_ASSIGNMENT ( #49, #139, ( #201 ) ) ;
#62 = CALENDAR_DATE ( 2023, 1, 2 ) ;
#63 = CALENDAR_DATE ( 2023, 1, 2 ) ;
#64 = APPROVAL_STATUS ( 'not_yet_approved' ) ;
#65 = CC_DESIGN_APPROVAL ( #14, ( #3 ) ) ;
#66 = EDGE_CURVE ( 'NONE', #165, #165, #30, .T. ) ;
#67 = AXIS2_PLACEMENT_3D ( 'NONE', #77, #196, #88 ) ;
#68 = AXIS2_PLACEMENT_3D ( 'NONE', #75, #38, #9 ) ;
#69 = EDGE_LOOP ( 'NONE', ( #99 ) ) ;
#70 = ORIENTED_EDGE ( 'NONE', *, *, #33, .T. ) ;
#71 = LOCAL_TIME ( 16, 37, 59.00000000000000000, #95 ) ;
#72 = SECURITY_CLASSIFICATION ( '', '', #78 ) ;
#73 = VERTEX_POINT ( 'NONE', #5 ) ;
#74 = MANIFOLD_SOLID_BREP ( 'Corps-Déplacer/Copier1[2]', #16 ) ;
#75 = CARTESIAN_POINT ( 'NONE',  ( 2.094888803305880013E-14, 2.249639673992785317E-32, 6.000000000000000000 ) ) ;
#76 = FACE_OUTER_BOUND ( 'NONE', #34, .T. ) ;
#77 = CARTESIAN_POINT ( 'NONE',  ( 1.728283262727351074E-13, -6.062001655779398511E-15, 49.50000000000000000 ) ) ;
#78 = SECURITY_CLASSIFICATION_LEVEL ( 'unclassified' ) ;
#79 = AXIS2_PLACEMENT_3D ( 'NONE', #178, #37, #164 ) ;
#80 = ADVANCED_BREP_SHAPE_REPRESENTATION ( '977838', ( #137, #74, #161 ), #19 ) ;
#81 = DIRECTION ( 'NONE',  ( 0.000000000000000000, 0.000000000000000000, 1.000000000000000000 ) ) ;
#82 = EDGE_CURVE ( 'NONE', #6, #6, #41, .T. ) ;
#83 = CIRCLE ( 'NONE', #36, 2.500000000000000000 ) ;
#84 = CC_DESIGN_SECURITY_CLASSIFICATION ( #72, ( #201 ) ) ;
#85 = DIRECTION ( 'NONE',  ( -3.491481338843133355E-15, 1.224646799147353207E-16, -1.000000000000000000 ) ) ;
#86 = ORIENTED_EDGE ( 'NONE', *, *, #157, .F. ) ;
#87 = CARTESIAN_POINT ( 'NONE',  ( 0.000000000000000000, 0.000000000000000000, 0.000000000000000000 ) ) ;
#88 = DIRECTION ( 'NONE',  ( 0.000000000000000000, 1.000000000000000000, 0.000000000000000000 ) ) ;
#89 = CARTESIAN_POINT ( 'NONE',  ( 2.094888803305880013E-14, 2.249639673992785317E-32, 6.000000000000000000 ) ) ;
#90 = DIRECTION ( 'NONE',  ( -3.491481338843133355E-15, 1.224646799147353207E-16, -1.000000000000000000 ) ) ;
#91 = PLANE ( 'NONE',  #1 ) ;
#92 = APPROVAL_ROLE ( '' ) ;
#93 = ADVANCED_FACE ( 'NONE', ( #195 ), #168, .F. ) ;
#94 = DATE_AND_TIME ( #190, #194 ) ;
#95 = COORDINATED_UNIVERSAL_TIME_OFFSET ( 1, 0, .AHEAD. ) ;
#96 = APPROVAL_ROLE ( '' ) ;
#97 = ORIENTED_EDGE ( 'NONE', *, *, #82, .T. ) ;
#98 = ORIENTED_EDGE ( 'NONE', *, *, #66, .F. ) ;
#99 = ORIENTED_EDGE ( 'NONE', *, *, #66, .T. ) ;
#100 = EDGE_LOOP ( 'NONE', ( #97 ) ) ;
#101 = CC_DESIGN_DATE_AND_TIME_ASSIGNMENT ( #48, #155, ( #3 ) ) ;
#102 = PLANE ( 'NONE',  #182 ) ;
#103 = DIRECTION ( 'NONE',  ( 4.275831445896959482E-31, 1.000000000000000000, 1.224646799147353207E-16 ) ) ;
#104 = CARTESIAN_POINT ( 'NONE',  ( 1.728283262727351074E-13, -6.062001655779398511E-15, 49.50000000000000000 ) ) ;
#105 = FACE_OUTER_BOUND ( 'NONE', #162, .T. ) ;
#106 = CALENDAR_DATE ( 2023, 1, 2 ) ;
#107 = COORDINATED_UNIVERSAL_TIME_OFFSET ( 1, 0, .AHEAD. ) ;
#108 = APPROVAL_DATE_TIME ( #200, #146 ) ;
#109 = APPROVAL_DATE_TIME ( #31, #14 ) ;
#110 = UNCERTAINTY_MEASURE_WITH_UNIT (LENGTH_MEASURE( 1.000000000000000082E-05 ), #8, 'distance_accuracy_value', 'NONE');
#111 = AXIS2_PLACEMENT_3D ( 'NONE', #128, #57, #184 ) ;
#112 = APPROVAL_PERSON_ORGANIZATION ( #152, #146, #96 ) ;
#113 = ORIENTED_EDGE ( 'NONE', *, *, #157, .T. ) ;
#114 = CARTESIAN_POINT ( 'NONE',  ( 2.094888803305880013E-14, 2.999999999999999112, 6.000000000000000000 ) ) ;
#115 = CIRCLE ( 'NONE', #67, 3.000000000000000444 ) ;
#116 = CC_DESIGN_APPROVAL ( #146, ( #201 ) ) ;
#117 = DIRECTION ( 'NONE',  ( -3.491481338843133355E-15, 1.224646799147353207E-16, -1.000000000000000000 ) ) ;
#118 = COORDINATED_UNIVERSAL_TIME_OFFSET ( 1, 0, .AHEAD. ) ;
#119 = APPROVAL ( #64, 'UNSPECIFIED' ) ;
#120 = AXIS2_PLACEMENT_3D ( 'NONE', #27, #183, #40 ) ;
#121 = PERSON_AND_ORGANIZATION_ROLE ( 'design_supplier' ) ;
#122 = APPROVAL_DATE_TIME ( #189, #119 ) ;
#123 = PERSON_AND_ORGANIZATION ( #163, #132 ) ;
#124 = AXIS2_PLACEMENT_3D ( 'NONE', #87, #148, #42 ) ;
#125 = PRODUCT_DEFINITION_SHAPE ( 'NONE', 'NONE',  #3 ) ;
#126 = EDGE_LOOP ( 'NONE', ( #98 ) ) ;
#127 = DIRECTION ( 'NONE',  ( 4.275831445896959482E-31, 1.000000000000000000, 1.224646799147353207E-16 ) ) ;
#128 = CARTESIAN_POINT ( 'NONE',  ( -6.413747168845438786E-31, 2.249639673992786412E-32, -1.836970198721029934E-16 ) ) ;
#129 = CARTESIAN_POINT ( 'NONE',  ( 1.728283262727351074E-13, 2.999999999999994227, 49.50000000000000000 ) ) ;
#130 = CARTESIAN_POINT ( 'NONE',  ( 0.000000000000000000, 3.000000000000000000, 0.000000000000000000 ) ) ;
#131 = CARTESIAN_POINT ( 'NONE',  ( 1.745740669421566678E-13, -6.123233995736766085E-15, 50.00000000000000000 ) ) ;
#132 = ORGANIZATION ( 'UNSPECIFIED', 'UNSPECIFIED', '' ) ;
#133 = FACE_BOUND ( 'NONE', #22, .T. ) ;
#134 = ADVANCED_FACE ( 'NONE', ( #179 ), #102, .T. ) ;
#135 = DIRECTION ( 'NONE',  ( 0.000000000000000000, 1.000000000000000000, 0.000000000000000000 ) ) ;
#136 = CALENDAR_DATE ( 2023, 1, 2 ) ;
#137 = MANIFOLD_SOLID_BREP ( 'Corps-Déplacer/Copier1[1]', #46 ) ;
#138 = AXIS2_PLACEMENT_3D ( 'NONE', #20, #85, #127 ) ;
#139 = PERSON_AND_ORGANIZATION_ROLE ( 'creator' ) ;
#140 = APPLICATION_PROTOCOL_DEFINITION ( 'international standard', 'config_control_design', 1994, #143 ) ;
#141 = PERSON_AND_ORGANIZATION ( #163, #132 ) ;
#142 = PERSON_AND_ORGANIZATION_ROLE ( 'classification_officer' ) ;
#143 = APPLICATION_CONTEXT ( 'configuration controlled 3d designs of mechanical parts and assemblies' ) ;
#144 = EDGE_LOOP ( 'NONE', ( #35 ) ) ;
#145 = FACE_OUTER_BOUND ( 'NONE', #100, .T. ) ;
#146 = APPROVAL ( #202, 'UNSPECIFIED' ) ;
#147 = DIRECTION ( 'NONE',  ( -4.275831445896958607E-31, -1.000000000000000000, -1.224646799147353207E-16 ) ) ;
#148 = DIRECTION ( 'NONE',  ( -3.491481338843133355E-15, 1.224646799147353207E-16, -1.000000000000000000 ) ) ;
#149 = FACE_OUTER_BOUND ( 'NONE', #158, .T. ) ;
#150 = APPROVAL_PERSON_ORGANIZATION ( #171, #14, #92 ) ;
#151 = DIRECTION ( 'NONE',  ( 4.275831445896958607E-31, 1.000000000000000000, 1.224646799147353207E-16 ) ) ;
#152 = PERSON_AND_ORGANIZATION ( #163, #132 ) ;
#153 = CIRCLE ( 'NONE', #79, 3.000000000000000000 ) ;
#154 = AXIS2_PLACEMENT_3D ( 'NONE', #54, #117, #103 ) ;
#155 = DATE_TIME_ROLE ( 'creation_date' ) ;
#156 = PERSON_AND_ORGANIZATION_ROLE ( 'creator' ) ;
#157 = EDGE_CURVE ( 'NONE', #73, #73, #83, .T. ) ;
#158 = EDGE_LOOP ( 'NONE', ( #70 ) ) ;
#159 = CYLINDRICAL_SURFACE ( 'NONE', #138, 3.000000000000000000 ) ;
#160 = PRODUCT_RELATED_PRODUCT_CATEGORY ( 'detail', '', ( #17 ) ) ;
#161 = AXIS2_PLACEMENT_3D ( 'NONE', #13, #81, #172 ) ;
#162 = EDGE_LOOP ( 'NONE', ( #52 ) ) ;
#163 = PERSON ( 'UNSPECIFIED', 'UNSPECIFIED', 'UNSPECIFIED', ('UNSPECIFIED'), ('UNSPECIFIED'), ('UNSPECIFIED') ) ;
#164 = DIRECTION ( 'NONE',  ( 0.000000000000000000, 1.000000000000000000, 0.000000000000000000 ) ) ;
#165 = VERTEX_POINT ( 'NONE', #26 ) ;
#166 = DIRECTION ( 'NONE',  ( -3.491481338843133355E-15, 1.224646799147353207E-16, -1.000000000000000000 ) ) ;
#167 = VERTEX_POINT ( 'NONE', #129 ) ;
#168 = PLANE ( 'NONE',  #68 ) ;
#169 = APPLICATION_PROTOCOL_DEFINITION ( 'international standard', 'config_control_design', 1994, #176 ) ;
#170 = LOCAL_TIME ( 16, 37, 59.00000000000000000, #118 ) ;
#171 = PERSON_AND_ORGANIZATION ( #163, #132 ) ;
#172 = DIRECTION ( 'NONE',  ( 1.000000000000000000, 0.000000000000000000, 0.000000000000000000 ) ) ;
#173 = CC_DESIGN_PERSON_AND_ORGANIZATION_ASSIGNMENT ( #141, #29, ( #17 ) ) ;
#174 = CC_DESIGN_PERSON_AND_ORGANIZATION_ASSIGNMENT ( #197, #156, ( #3 ) ) ;
#175 = EDGE_LOOP ( 'NONE', ( #86 ) ) ;
#176 = APPLICATION_CONTEXT ( 'configuration controlled 3d designs of mechanical parts and assemblies' ) ;
#177 = LOCAL_TIME ( 16, 37, 59.00000000000000000, #15 ) ;
#178 = CARTESIAN_POINT ( 'NONE',  ( 2.094888803305880013E-14, -7.347880794884119736E-16, 6.000000000000000000 ) ) ;
#179 = FACE_OUTER_BOUND ( 'NONE', #18, .T. ) ;
#180 = ADVANCED_FACE ( 'NONE', ( #133, #105 ), #193, .T. ) ;
#181 = DIRECTION ( 'NONE',  ( -3.491481338843133355E-15, 1.224646799147353207E-16, -1.000000000000000000 ) ) ;
#182 = AXIS2_PLACEMENT_3D ( 'NONE', #89, #28, #147 ) ;
#183 = DIRECTION ( 'NONE',  ( -3.491481338843133355E-15, 1.224646799147353207E-16, -1.000000000000000000 ) ) ;
#184 = DIRECTION ( 'NONE',  ( 4.275831445896958607E-31, 1.000000000000000000, 1.224646799147353207E-16 ) ) ;
#185 = DATE_TIME_ROLE ( 'classification_date' ) ;
#186 = CC_DESIGN_APPROVAL ( #119, ( #72 ) ) ;
#187 = SHAPE_DEFINITION_REPRESENTATION ( #125, #80 ) ;
#188 = APPROVAL_STATUS ( 'not_yet_approved' ) ;
#189 = DATE_AND_TIME ( #106, #50 ) ;
#190 = CALENDAR_DATE ( 2023, 1, 2 ) ;
#191 = ORIENTED_EDGE ( 'NONE', *, *, #33, .F. ) ;
#192 = ADVANCED_FACE ( 'NONE', ( #56 ), #91, .F. ) ;
#193 = CONICAL_SURFACE ( 'NONE', #59, 3.000000000000000444, 0.7853981633974482790 ) ;
#194 = LOCAL_TIME ( 16, 37, 59.00000000000000000, #107 ) ;
#195 = FACE_OUTER_BOUND ( 'NONE', #69, .T. ) ;
#196 = DIRECTION ( 'NONE',  ( -3.491481338843133355E-15, 1.224646799147353207E-16, -1.000000000000000000 ) ) ;
#197 = PERSON_AND_ORGANIZATION ( #163, #132 ) ;
#198 = APPROVAL_PERSON_ORGANIZATION ( #199, #119, #47 ) ;
#199 = PERSON_AND_ORGANIZATION ( #163, #132 ) ;
#200 = DATE_AND_TIME ( #63, #170 ) ;
#201 = PRODUCT_DEFINITION_FORMATION_WITH_SPECIFIED_SOURCE ( 'ANY', '', #17, .NOT_KNOWN. ) ;
#202 = APPROVAL_STATUS ( 'not_yet_approved' ) ;
#203 = EDGE_CURVE ( 'NONE', #167, #167, #115, .T. ) ;
ENDSEC;
END-ISO-10303-21;
